PrimaNota.ru - самый крупный в мире бесплатный архив песенных текстов, аккордов, табулатур и нот


Washya - Electric Wave - таба, видео

Регистрация Запомнить меня
Войти через:  Facebook Google Twitter Vk Yandex Mail.ru

Washya - Electric Wave - таба, видео

Печатать
Просмотров: 58
-----------------------------------------------------------------------------
                       Electric Wave - Washya
-----------------------------------------------------------------------------
Tuning: Drop C (DAFCGC)
Intro/Verses
D|---------0-------------------0--------|
A|-----------0-------------------0------|
F|-------4-----4-------4-----------4----|
C|-----6---------6-------6-----------6--|
G|---7-------------7---------7----------|
C|-7-----------------7-----7------------|

D|---------0-------------------0----------|
A|-----------0-------------------0--------|
F|-------2-----2-------2-----------2------|
C|-----4---------4-------4-----------4----|
G|---5-------------5---------5------------|
C|-5-----------------5-----5--------------|

D|---------0-------------------0-------|
A|-----------0-------------------0-----|
F|-------0-----0-------0-----------0---|
C|-----2---------2-------2-----------2-|
G|---3-------------3---------3---------|
C|-3-----------------3-----3-----------|

Chorus
D|-0000-00-------------0000---------------------------------3-|
A|-0000-00-------------0000---------------------------------3-|
F|-4444-22---2-----2---0000---0-----0-----------0-----0-----5-|
C|-6666-44-----------4-2222-----------2-----------2---------5-|
G|-7777-55-------5-----3333-------3-------3---3-----------3-3-|
C|-7777-55-5---5-------3333-3---3-------3---3-------3---3---3-|

Solo
D|-----------------------------------------------------------------------|
A|-----------------------------------4---4/7bp6--------------------------|
F|-----------4---------------------5---5------------------2--------------|
C|-----6---6---6---6-4-4h5p4-2-4/5------------------4---4---4---4-2-0-2b-|
G|---7---7-------7--------------------------------5---5-------5----------|
C|-7--------------------------------------------5------------------------|

D|---------------------------------------------------------|
A|-------------------------------------13----13/15-17br-15-|
F|-------9---9/11-13-13b-(14)-11----13----13---------------|
C|-----9---9---------------------11------------------------|
G|-/7------------------------------------------------------|
C|---------------------------------------------------------|

D|-12b-12b-12----12------12--------------15-17-18-18-19-21-21~-|
A|-15b-15b----15b----15b----15b-15-17-18-----------------------|
F|-------------------------------------------------------------|
C|-------------------------------------------------------------|
G|-------------------------------------------------------------|
C|-------------------------------------------------------------|

D|-21h22p21----------22-21----------22-21-------21h22p21/19h20p19/17h19p17-|
A|----------22-21-22-------22-21-22-------22-21----------------------------|
F|-------------------------------------------------------------------------|
C|-------------------------------------------------------------------------|
G|-------------------------------------------------------------------------|
C|-------------------------------------------------------------------------|

D|-/16h17p16/14h16p14/12h14p12/11h12p11----------11----------11-------------|
A|--------------------------------------12-10-12----12-10-12----12----------|
F|-----------------------------------------------------------------12----12-|
C|--------------------------------------------------------------------10----|
G|--------------------------------------------------------------------------|
C|--------------------------------------------------------------------------|

D|------10-----------------10----------------10----------------10--|
A|----------------------------13-12-10-12-13-----------------------|
F|-12~------13-12-10-12-13----------------------13-12-10-12-13-----|
C|-----------------------------------------------------------------|
G|-----------------------------------------------------------------|
C|-----------------------------------------------------------------|

D|----------------10----------------------------12-13~-|
A|-13-12-10-12-13----------------------------10--------|
F|-------------------13-12-10-------10-12-13-----------|
C|----------------------------12-13--------------------|
G|-----------------------------------------------------|
C|-----------------------------------------------------|

D|-17p13----13h15p13-17p13----13h15p13-18p14----14h16p14-18p14----14h16p14--|
A|-------16----------------16----------------17----------------17-----------|
F|--------------------------------------------------------------------------|
C|--------------------------------------------------------------------------|
G|--------------------------------------------------------------------------|
C|--------------------------------------------------------------------------|

D|-19p15----15h19p15-19p15----15h19p15-20p16----16h20p16-20p16----16h20p16-|
A|-------18----------------18----------------19----------------19----------|
F|-------------------------------------------------------------------------|
C|-------------------------------------------------------------------------|
G|-------------------------------------------------------------------------|
C|-------------------------------------------------------------------------|

D|-20b------|
A|-----19~/-|
F|----------|
C|----------|
G|----------|
C|----------|
Добавлено: 26.06.2013
Другие материалы по этой песне:
  • Аккорды и текст

Страница создана 26.06.2013
http://primanota.ru/washya/electric-wave-chords.htm
Привет, Гость.
Предлагаем пройти революционный курс по гитаре.
Подарок от PrimaNota.Ru, забирай!