PrimaNota.ru - самый крупный в мире бесплатный архив песенных текстов, аккордов, табулатур и нот


Washya - End Game - таба, видео

Регистрация Запомнить меня
Войти через:  Facebook Google Twitter Vk Yandex Mail.ru

Washya - End Game - таба, видео

Печатать
Просмотров: 56
-----------------------------------------------------------------------------
                          End Game - Washya
-----------------------------------------------------------------------------
Tuning: Drop C (DAFCGC)
Intro
D|---------------------------------|
A|---------------------------------|
F|---------------------------------|
C|---------------------------------|
G|-8-5-0-3-6-5-0-5-8-7-0-3-5-0-1-3-|
C|-8-5-0-3-6-5-0-5-8-7-0-3-5-0-1-3-|
PM * * * * * * * * * * * * * * * * 

Verses
D|-----------------------------------------------------------------|
A|-----------------------------------------------------------------|
F|---------8-----------8-------------6-----------6-----------------|
C|-----8-----------8-------------6-----------6---------------------|
G|---5---5---5---5---5---5-----3---3---3---3---3---3-3/1111111/333-|
C|-5-----------5-----------5\3-----------3-----------3/1111111/333-|
PM * * * *   * * * * *   * * * * * *   * * * * *   * 

Chorus
D|----------------------------------------------------------------------|
A|----------------------------------------------------------------------|
F|----------------------------------------------------------------------|
C|-----------------------10101010101010101010-5555555555----------------|
G|-55555555/888888888888-8-8-8-8-8-8-8-8-8-8--3333333333-66666666-33333-|
C|-55555555/888888888888---------------------------------66666666-33333-|

D|------------------------------------------------------------------|
A|------------------------------------------------------------------|
F|------------------------------------------------------------------|
C|-----3333333-7777777-------------------44444444----------555------|
G|-333-1111111-5555555-77777777\44444444-22222222-22222222-333-11/3-|
C|-333-----------------77777777\44444444----------22222222-----11/3-|

Guitar Solo (Play Twice Through)
D|--------------------------------------------------------------|
A|--------------------------------------------------------------|
F|------6-5---6-5-3-------4-5-----------------------------------|
C|----3-----------------2-----4-2---3-2---------------3---------|
G|-22-------2-------2-------------4-----------6-5-------3p2p0-2-|
C|--------------------2-----------------5-4-2-----6-5---------2-|
Добавлено: 11.09.2013
Другие материалы по этой песне:
  • Аккорды и текст

Страница создана 11.09.2013
http://primanota.ru/washya/end-game-chords.htm
Привет, Гость.
Предлагаем пройти революционный курс по гитаре.
Подарок от PrimaNota.Ru, забирай!