PrimaNota.ru - самый крупный в мире бесплатный архив песенных текстов, аккордов, табулатур и нот


Washya - Dig It - таба, видео

Регистрация Запомнить меня
Войти через:  Facebook Google Twitter Vk Yandex Mail.ru

Washya - Dig It - таба, видео

Печатать
Просмотров: 84
Уроки эстрадного вокала в Санкт-Петербурге
------------------------------------------------------------------------------
                    Dig It - Washya
------------------------------------------------------------------------------
Tuning: Standard (EBGDAE)
Intro
E|--------------------------------|
B|--------------------------------|
G|-----5------3-----7-------------|
D|-----5------3-----7-------------|
A|---5-3----3-1---7-5-3-5---3-3-2-|
E|-3-----11-----5-----1-3-1---1-0-|
PM * *   ** *   * *       * * 

Verses
E|-------------------------------------------------------------|
B|-------------------------------------------------------------|
G|-----5-------7-----------------2-------8-------6-------------|
D|---3-5---5h7-7-5h8p5h7---------2---6h8-8---4h6-6-4h7p4h6-----|
A|-----3-------5---------5h7---2-0-------6-------4---------6/8-|
E|-0-----0-------------------0-----0-------0---------------4/6-|
PM *     *                   *     *       *   

Chorus
E|---------------------------------------------------------------2-2-2-2-|
B|-1-1-1-1---------------------------------------1-1-1-1-----1p0-3-3-3-3-|
G|-0-0-0-0-------------------1-1-1-1-1-0h1p0-----2-2-2-2---0-----2-2-2-2-|
D|-2-2-2-2-----2-2-2-2-2---2---2-2-2-2-------2p0-2-2-2-2-2---------------|
A|-3-3-3-3---2---2-2-2-2-2-----2-2-2-2-----------------------------------|
E|---------0-----0-0-0-0-------------------------------------------------|
Добавлено: 11.11.2013
Другие материалы по этой песне:
  • Аккорды и текст

Страница создана 11.11.2013
http://primanota.ru/washya/dig-it-chords.htm
Привет, Гость.
Предлагаем пройти революционный курс по гитаре.
Подарок от PrimaNota.Ru, забирай!