PrimaNota.ru - самый крупный в мире бесплатный архив песенных текстов, аккордов, табулатур и нот


Washya - Dione - таба, видео

Регистрация Запомнить меня
Войти через:  Facebook Google Twitter Vk Yandex Mail.ru

Washya - Dione - таба, видео

Печатать
Просмотров: 69
-----------------------------------------------------------------------------
                              Dione - Washya
-----------------------------------------------------------------------------
Tuning: Standard (EBGDAE)
Intro
E|-------------------------------------------------------------|
B|-------------------------------------------------------------|
G|-------------------------------------------------------------|
D|---4-4---4---5-----------------6-6---6---7-6-4---4---6-4-3---|
A|-2-----2---2-----4-4---4---5-4-----4---4-------6-----4-2-1-2-|
E|---------------2-----2---2-------------------------6-------0-|
PM * * * * * * * * * * * * * * * * * * * * * * * * * *        


Main Riff/Chorus
E|-----------------------------------------------|
B|-----------------------------------------------|
G|-----------------------------------------------|
D|---------8887---3---------999-10---------333-5-|
A|-----3-2-6665-5-1-7-6-3-4-777-8--3-5-8-7-111-3-|
E|\\xx-1-0------3---5-4-1-2--------1-3-6-5-------|
Добавлено: 06.08.2013
Другие материалы по этой песне:
  • Аккорды и текст

Страница создана 06.08.2013
http://primanota.ru/washya/dione-chords.htm
Привет, Гость.
Предлагаем пройти революционный курс по гитаре.
Подарок от PrimaNota.Ru, забирай!