PrimaNota.ru - самый крупный в мире бесплатный архив песенных текстов, аккордов, табулатур и нот


Washya - Decadence - таба, видео

Регистрация Запомнить меня
Войти через:  Facebook Google Twitter Vk Yandex Mail.ru

Washya - Decadence - таба, видео

Печатать
Просмотров: 92
-----------------------------------------------------------------------------
                          Decadence - Washya 
-----------------------------------------------------------------------------
Tuning: Drop C (DAFCGC)
Intro
D|-----------------------------|
A|-----------------------------|
F|-----------------------------|
C|-----------------------------|
G|-------5-------------555-333-|
C|-0-3-2---5-3-1-3-1-0-555-333-|
PM . . .   . . . . . . ... ... 

Intro 2
D|-----------------------------|
A|-----------------------------|
F|-----------------------------|
C|-------7-------------777-555-|
G|-0-3-2-5-5-3-1-3-1-0-555-333-|
C|-0-3-2---5-3-1-3-1-0-555-333-|

Verses                         <2nd time>
D|--------------------------------|----------|
A|-------------<7>----------------|----------|
F|---------<7>---------------8887-|-101010\9-|
C|-----------------<7>-------6665-|-8-8-8-\7-|
G|----32-5-------------76----6665-|-8-8-8-\7-|
C|-65---------------------67-6665-|-8-8-8-\7-|
Pm .. .. .             .. .. 

Chorus
D|------------------------------------------|
A|------------------------------------------|
F|----------7-5-8-----------5555555-3333333-|
C|------3-2-x-x-x-----------3333333-1111111-|
G|------3-2-5-3-6-6-5-3-5-6-3333333-1111111-|
C|-//xx-3-2-------6-5-3-5-6-3333333-1111111-|
Pm                . . . . .  
Добавлено: 16.07.2013
Другие материалы по этой песне:
  • Аккорды и текст

Страница создана 16.07.2013
http://primanota.ru/washya/decadence-chords.htm
Привет, Гость.
Предлагаем пройти революционный курс по гитаре.
Подарок от PrimaNota.Ru, забирай!