PrimaNota.ru - самый крупный в мире бесплатный архив песенных текстов, аккордов, табулатур и нот


Washya - Deception - таба, видео

Регистрация Запомнить меня
Войти через:  Facebook Google Twitter Vk Yandex Mail.ru

Washya - Deception - таба, видео

Печатать
Просмотров: 79
-----------------------------------------------------------------------------
                                 Deception - Washya
-----------------------------------------------------------------------------

Tuning: Drop B (BF#BEG#C#)

Intro (tremelo picking very very fast)
C#|-121212121212h15p12h17p12h19p12h20p12h20p12h19p12h15p12----12h15-|
G#|--------------------------------------------------------15-------|
E|------------------------------------------------------------------|
B|------------------------------------------------------------------|
F#|-----------------------------------------------------------------|
B|------------------------------------------------------------------|

intro 2
C#|-------------------------------------------------------------------------|
G#|-------------------------------------------------------------------------|
E|--------------------------------------------------------------------------|
B|--------------------------------------------------------------------------|
F#|-------------------------------------------------------------------------|
B|-00000003000000500000600000030000300303030000000500006000003000001000003--|
pm ....... ...... ..... ...... .... .. . . ....... .... ..... ..... ..... 

Verses
C#|--------------------------------------------------------------------|
G#|--------------------------------------------------------------------|
E|--------------------------------------2------------------------------|
B|----------------2-----------------------3p2v~----------------3p2-----|
F#|-----------2h3---3p20------------2h3----------------------1-----3~--|
B|-0000000000------------0000000000-------------00000000-3-0-----------|
pm ..........            ..........             ........ 

Chorus
C#|--------------------------------------------------|
G#|--------------------------------------------------|
E|---------------------------------------------------|
B|---------------------------------------------------|
F#|-----------------------------6~-------------5-----|
B|-0-1-0-1-0-4-3-4/666666686105----000-000-567---76~-|
pm .   .   .                       ... ... 
Добавлено: 25.09.2013
Другие материалы по этой песне:
  • Аккорды и текст

Страница создана 25.09.2013
http://primanota.ru/washya/deception-chords.htm
Привет, Гость.
Предлагаем пройти революционный курс по гитаре.
Подарок от PrimaNota.Ru, забирай!