PrimaNota.ru - самый крупный в мире бесплатный архив песенных текстов, аккордов, табулатур и нот


Washya - Crossover - таба, видео

Регистрация Запомнить меня
Войти через:  Facebook Google Twitter Vk Yandex Mail.ru

Washya - Crossover - таба, видео

Печатать
Просмотров: 58
-------------------------------------------------------------------------------
                            Crossover - Washya 
-------------------------------------------------------------------------------
Tuning: Standard (ebgDAE)
Intro
e|-----------------------------------------------|
b|-----------------------------------------------|
g|-----------------------------------------------|
D|-------5h7h8-------5h7h8-------5h7h8-8-888-----|
A|-5h6h8-------5h6h8-------5h6h8-------6-666-6/8-|
E|-------------------------------------------4/6-|

Verses
e|---------------------------------------------------|
b|---------------------------------------------------|
g|---------------------------------------------------|
D|-----------------------------------------10--------|
A|-----10p8p7-----8p5h7-----5p2h3-----9h12----11-12--|
E|-000--------000-------000-------000----------------|
pm ...        ...       ...       ... 

Chorus
e|-----------------------------------------------|
b|-----------------------------------------------|
g|-6-666-4-444-7-777-5-555-----------------------|
D|-6-666-4-444-7-777-5-555-----------3-5555-2-3--|
A|-4-444-2-222-5-555-3-333-------3-5---3333-0-1--|
E|-4-444-2-222-5-555-3-333-3-4-6-----------------|
Добавлено: 06.09.2013
Другие материалы по этой песне:
  • Аккорды и текст

Страница создана 06.09.2013
http://primanota.ru/washya/crossover-chords.htm
Привет, Гость.
Предлагаем пройти революционный курс по гитаре.
Подарок от PrimaNota.Ru, забирай!