PrimaNota.ru - самый крупный в мире бесплатный архив песенных текстов, аккордов, табулатур и нот


Washya - Crunch - таба, видео

Регистрация Запомнить меня
Войти через:  Facebook Google Twitter Vk Yandex Mail.ru

Washya - Crunch - таба, видео

Печатать
Просмотров: 80
-----------------------------------------------------------------------------
                         Crunch - Washya
-----------------------------------------------------------------------------
Tuning; Standard (EBGDAE)
Intro
E|----------------------------------------------|
B|----------------------------------------------|
G|----------------------------------------------|
D|-------3-5-7-5-3------------3-5-7-5-3---------|
A|-3-5-7-----------5----3-5-7-----------5-5-4-2-|
E|-------------------3~-------------------3-2-0-|

Verses
E|---------------------------------------------------------------|
B|---------------------------------------------------------------|
G|---------------------------------------------------------------|
D|-----------------------222222222222222-------------------------|
A|-444444444444444444444-----------------222222222222222-------6-|
E|-------------------------------------------------------1113334-|
PM ************************************************************ 

Chorus
E|---------------------------------------------------------|
B|---------------------------------------------------------|
G|---------------------------------------------------------|
D|-------2-3-4-3-------------7-8-10-8-7--------------------|
A|-2-3-4-0-1-2-1-4-2--7-8-10-5-6-8--6-5-7-777-9-10-555-7-8-|
E|-0-1-2---------2-0--5-6-8-------------5-555-7-8--333-5-6-|
PM                                        ***      ***  

Guitar Solo
E|-------------------------------------------------12-15p14p12-------------|
B|-----10h12p10-----10h12p10-----9h10p9-----9h10p9-------------12-15p14p12-|
G|-11b----------11b----------11b--------11b--------------------------------|
D|-------------------------------------------------------------------------|
A|-------------------------------------------------------------------------|
E|-------------------------------------------------------------------------|

E|-------------------------------12h15p12h13p12h15p12h14p12h15p12-13b-|
B|-12h15p12h14p12h15p12h14p12h15----------------------------------15b-|
G|--------------------------------------------------------------------|
D|--------------------------------------------------------------------|
A|--------------------------------------------------------------------|
E|--------------------------------------------------------------------|

E|-15b-13----13~----15----16----13~-13h15-13h16-14h17-14h16p14h16-----|
B|-15b-13----13~-13----13----13-----------------------------------14~-|
G|--------15----------------------------------------------------------|
D|--------------------------------------------------------------------|
A|--------------------------------------------------------------------|
E|--------------------------------------------------------------------|

E|---------9h11h12----------10h12h13----------11h13h14----------13h15h16-|
B|-9h11h12---------10h12h13----------11h13h14----------13h15h16----------|
G|-----------------------------------------------------------------------|
D|-----------------------------------------------------------------------|
A|-----------------------------------------------------------------------|
E|-----------------------------------------------------------------------|

E|----------14h16h17-18h19-21b~\-|
B|-14h16h17----------------20b~\-|
G|-------------------------------|
D|-------------------------------|
A|-------------------------------|
E|-------------------------------|

Intro
E|----------------------------------------------|
B|----------------------------------------------|
G|----------------------------------------------|
D|-------3-5-7-5-3------------3-5-7-5-3---------|
A|-3-5-7-----------5----3-5-7-----------5-5-4-2-|
E|-------------------3~-------------------3-2-0-|

Chorus
E|---------------------------------------------------------|
B|---------------------------------------------------------|
G|---------------------------------------------------------|
D|-------2-3-4-3-------------7-8-10-8-7--------------------|
A|-2-3-4-0-1-2-1-4-2--7-8-10-5-6-8--6-5-7-777-9-10-555-7-8-|
E|-0-1-2---------2-0--5-6-8-------------5-555-7-8--333-5-6-|
PM                                        ***      *** 

Verses
E|---------------------------------------------------------------|
B|---------------------------------------------------------------|
G|---------------------------------------------------------------|
D|-----------------------222222222222222-------------------------|
A|-444444444444444444444-----------------222222222222222-------6-|
E|-------------------------------------------------------1113334-|
PM ************************************************************ 
Добавлено: 24.10.2013
Другие материалы по этой песне:
  • Аккорды и текст

Страница создана 24.10.2013
http://primanota.ru/washya/crunch-chords.htm
Привет, Гость.
Предлагаем пройти революционный курс по гитаре.
Подарок от PrimaNota.Ru, забирай!