PrimaNota.ru - самый крупный в мире бесплатный архив песенных текстов, аккордов, табулатур и нот


Washya - Creepy Gesture - таба

Регистрация Запомнить меня
Войти через:  Facebook Google Twitter Vk Yandex Mail.ru

Washya - Creepy Gesture - таба

Печатать
Просмотров: 71
Уроки эстрадного вокала в Санкт-Петербурге
-----------------------------------------------------------------------------
               Creepy Gesture - Washya
-----------------------------------------------------------------------------
Tuning: Standard (ebgDAE)
Intro
e|--------------------------------------------------------|
b|--------------------------------------------------------|
g|----------------------------0-2-------------------------|
D|-----2-----2--------------2---------0-------------------|
A|---3-----2---2222322223-3---------2---3p2p0-22223222265-|
E|-0-----0-----0000100001---------3-----------00001000043-|
PM             **** ****                      **** **** 

Main Riff/Verses
e|---------------------------------------------------------------------|
b|---------------------------------------------------------------------|
g|---------------------------------------------------------------------|
D|----7---7---7---7---7---7--------------------------------------------|
A|----5---5---5---5---5---5-5h7-8p7p5-----99999999---9-9--9--999991097-|
E|-00---0---0---0---0---0-------------7p5-77777777-77---77---777778-75-|
PM **   *   *   *   *   *                 ******** **   **   ***** 

Chorus
e|--------------------------------------------------------|
b|--------------------------------------------------------|
g|--------------------------------------------------------|
D|-5-11\9-------------------------------------------------|
A|-3-9-\7-7-10\12/9----------9----11----5-7-------22-33-2-|
E|--------5-8-\10/7-00000-00---00----00---5555555-00-11-0-|
PM                  ***** **   **    **    ****** 
Добавлено: 31.07.2013
Другие материалы по этой песне:
  • Аккорды и текст

Страница создана 31.07.2013
http://primanota.ru/washya/creepy-gesture-chords.htm
Привет, Гость.
Предлагаем пройти революционный курс по гитаре.
Подарок от PrimaNota.Ru, забирай!