PrimaNota.ru - самый крупный в мире бесплатный архив песенных текстов, аккордов, табулатур и нот


Washya - Credible Analysis - таба

Регистрация Запомнить меня
Войти через:  Facebook Google Twitter Vk Yandex Mail.ru

Washya - Credible Analysis - таба

Печатать
Просмотров: 52
-----------------------------------------------------------------------------
          Credible Analysis - Washya
-----------------------------------------------------------------------------
Tuning: Standard (EBGDAE)
Intro                                                   
E|----------------------------------------------------|---------------------|
B|----------------------------------------------------|---------------------|
G|----------------------------------------------------|---------------------|
D|----------------------------------------------------|-----3p2-------3p2---|
A|----------------------------------------------------|-2h4-----4-2h4-----2-|
E|-22222222222222222222222222222222222222222222222222-|---------------------|
PM **************************************************

Main Riff/Chorus                             
E|-----------------------------------------|-----------------|
B|-----------------------------------------|-----------------|
G|-----------------------------------------|-----------------|
D|-----------------------------------------|-----------------|
A|-----------------------------------------|-4/5-4/5-4/5-4/5-|
E|-0-6-5-3-5-3-2-4-3-1-0-6-5-3-5-3-2-4-3-1-|-2/3-2/3-2/3-2/3-|
PM * * * * * * * * * * * * * * * * * * * * 

E|-------------------------------------|-------------|
B|-------------------------------------|-------------|
G|-------------------------------------|-------------|
D|-------------------------------------|-------------|
A|-6-5---6-5---6-5---3-2---3-2---3-2---|-4/5-4/5-4/5-|
E|-----5-----5-----5-----2-----2-----2-|-2/3-2/3-2/3-|
PM * * * * * * * * * * * * * * * * * *  

Verses (Palm Muted)
E|---------------------------|-------------------|
B|---------------------------|-------------------|
G|---------------------------|-------------------|
D|---------------------------|-------------------|
A|-2-5-4-3-8-7-5-7-6-5-5-4-3-|-5\4-2-5\4-2-5\4-2-|
E|-0-3-2-1-6-5-3-5-4-3-3-2-1-|-3\2-0-3\2-0-3\2-0-|
PM * * * * * * * * * * * * *  

Guitar Solo (Played Fast)
E|-------------------------------------------------------------------------|
B|-------------------------------------------------------------------------|
G|-------------------------------------------------------12h14h15p12h14h15-|
D|-------------------------------------12h14h15p12h14h15-------------------|
A|-------------------12h14h15p12h14h15-------------------------------------|
E|-12h14h15p12h14h15-------------------------------------------------------|
PM **************************************** 


E|-------------------12h14h15p12h14h15-------------------13h15h16p13h15h16-|
B|-12h14h15p12h14h15-------------------13h15h16p13h15h16-------------------|
G|-------------------------------------------------------------------------|
D|-------------------------------------------------------------------------|
A|-------------------------------------------------------------------------|
E|-------------------------------------------------------------------------|

E|-------------------14h16h17p14h16h17-17p15----15p14-------------------|
B|-14h16h17p14h16h17-------------------------17-------15-17p15p14-------|
G|----------------------------------------------------------------16p14-|
D|----------------------------------------------------------------------|
A|----------------------------------------------------------------------|
E|----------------------------------------------------------------------|

E|---------------------------------------19h21p20p18h21p20p18-|
B|-----------------------------------19b----------------------|
G|----14p13---------------------------------------------------|
D|-16-------14p12---------------------------------------------|
A|----------------14p13p11------------------------------------|
E|-------------------------13p12p10~--------------------------|

E|-------------------------------------------------------------------------|
B|-21p20p18h21p20p18-------------------------------------------------------|
G|-------------------21p20p18h21p20p18-------------------------------------|
D|-------------------------------------21p20p18h21p20p18-------------------|
A|-------------------------------------------------------21p20p18h21p20p18-|
E|-------------------------------------------------------------------------|

E|--------------------|
B|--------------------|
G|--------------------|
D|--------------------|
A|--------------------|
E|-21p20p18h21p20p18~-|

Main Riff/Chorus                             
E|-----------------------------------------|-----------------|
B|-----------------------------------------|-----------------|
G|-----------------------------------------|-----------------|
D|-----------------------------------------|-----------------|
A|-----------------------------------------|-4/5-4/5-4/5-4/5-|
E|-0-6-5-3-5-3-2-4-3-1-0-6-5-3-5-3-2-4-3-1-|-2/3-2/3-2/3-2/3-|
PM * * * * * * * * * * * * * * * * * * * * 

E|-------------------------------------|-------------|
B|-------------------------------------|-------------|
G|-------------------------------------|-------------|
D|-------------------------------------|-------------|
A|-6-5---6-5---6-5---3-2---3-2---3-2---|-4/5-4/5-4/5-|
E|-----5-----5-----5-----2-----2-----2-|-2/3-2/3-2/3-|
PM * * * * * * * * * * * * * * * * * *  

Verses (Palm Muted)
E|---------------------------|-------------------|
B|---------------------------|-------------------|
G|---------------------------|-------------------|
D|---------------------------|-------------------|
A|-2-5-4-3-8-7-5-7-6-5-5-4-3-|-5\4-2-5\4-2-5\4-2-|
E|-0-3-2-1-6-5-3-5-4-3-3-2-1-|-3\2-0-3\2-0-3\2-0-|
PM * * * * * * * * * * * * *  
Добавлено: 27.06.2013
Другие материалы по этой песне:
  • Аккорды и текст

Страница создана 27.06.2013
http://primanota.ru/washya/credible-analysis-chords.htm
Привет, Гость.
Предлагаем пройти революционный курс по гитаре.
Подарок от PrimaNota.Ru, забирай!