PrimaNota.ru - самый крупный в мире бесплатный архив песенных текстов, аккордов, табулатур и нот


Washya - Champagne - таба, видео

Регистрация Запомнить меня
Войти через:  Facebook Google Twitter Vk Yandex Mail.ru

Washya - Champagne - таба, видео

Печатать
Просмотров: 84
-----------------------------------------------------------------------------
                   Champagne - Washya
-----------------------------------------------------------------------------
Tuning: Standard (EBGDAE)
Intro (nice song)
E|----------------------------------------------------------------|
B|----------------------------------------------------------------|
G|-44-4-44-4-44-4-44-4-22-2-22-2-22-2-22-2-22-2-44-22-------------|
D|----------------------------------------------------4-2-0-2p0---|
A|--------------------------------------------------------------2-|
E|----------------------------------------------------------------|
PM ** * ** * ** * ** * ** * ** * ** * ** * ** * ** ** * 

Verses (lead) (slow)
E|-----------------8p7h10/13b~-------------6p5h8/11b~-13p11p10-12b-14b~-|
B|-/9~----------9~----------------------7~---------------------11b-12b~-|
G|----------7-----------------------5-----------------------------------|
D|-----/5h7---7----------------/3h5---5---------------------------------|
A|----------------------------------------------------------------------|
E|----------------------------------------------------------------------|

Verses
E|---0---0--------2---2---------------3---0-|
B|-3---3------------3-3-------1p0-------3---|
G|---------2--------------------------------|
D|-------------2--------0---2-----2---------|
A|------------------------2---------3-------|
E|-----------0------------------------------|

Chorus
E|---------------33-333-33-333-11-111-11-111----------------|
B|---------------33-333-33-333-11-111-11-111----------------|
G|-55-555-11-111-xx-xxx-44-444-22-222-22-222----------7~~\\-|
D|-55-555-22-222-xx-xxx-55-555-33-333-33-333-/7p5p3---------|
A|-33-333-22-222-33-333-55-555-33-333-11-111--------5-------|
E|---------------33-333---------------11-111----------------|
Добавлено: 04.06.2013
Другие материалы по этой песне:
  • Аккорды и текст

Страница создана 04.06.2013
http://primanota.ru/washya/champagne-chords.htm
Привет, Гость.
Предлагаем пройти революционный курс по гитаре.
Подарок от PrimaNota.Ru, забирай!