PrimaNota.ru - самый крупный в мире бесплатный архив песенных текстов, аккордов, табулатур и нот


Washya - Lost World - таба, видео

Регистрация Запомнить меня
Войти через:  Facebook Google Twitter Vk Yandex Mail.ru

Washya - Lost World - таба, видео

Печатать
Просмотров: 80
------------------------------------------------------------------------------
                     Lost World - Washya
------------------------------------------------------------------------------
Tuning: Standard (EBGDAE)
Intro/Verses
E|-----------------------------------------------------------------------|
B|---------------------------------------------------------------3-------|
G|---4---------0-----------0---------4-----------0-----------------4-----|
D|-------4-------4-------4-------0-----2-------4---4-0---2-----0-----4---|
A|-----2-----2-----2---2-------2-------------2---------2-----4---------2-|
E|-0-------0---------0-------3-----0-----3p2---------------2-------------|

E|---------------------0------------------------------------------|
B|---------------------3------------------------------------------|
G|-----------0-------------4------------------------------0-------|
D|---4---4-----4-0-4---------4---5------4/5-------5/7---4---4-----|
A|-2---2---2---------2---2---------2--------3---3-----5-------2-2-|
E|-----------------------------0------0-------0-----------------0-|

Chorus
E|--------------------------------------------------------------------|
B|--------------------------------------------------------------------|
G|-2-----3------4----------5\4----------------2-----3/4-----7-----5---|
D|-2-----3------4-5----5/6-5\4-5/6----------4-2-----3/4-----7-----5-3-|
A|-0-00001-1111/2-5----5/6-3\2-5/6------2h4---0-00001/2-22225-55553-3-|
E|----------------3-3333/4-----3/4-4444-----------------------------1-|
PM   ****  ****     ***            ****         ****    ****  **** 

Solo
E|-/14t19p16t19p16p14t20p16p14t20p16p14t19------------------------|
B|-----------------------------------------/-12t17p14p12t17p14t17-|
G|----------------------------------------------------------------|
D|----------------------------------------------------------------|
A|----------------------------------------------------------------|
E|----------------------------------------------------------------|

E|-----------------------------------------------------/8t12p10p8t12p10p8-|
B|-/14t18p16p14t18p16p14\11t15p13p11t15p13p11t15p13p11--------------------|
G|------------------------------------------------------------------------|
D|------------------------------------------------------------------------|
A|------------------------------------------------------------------------|
E|------------------------------------------------------------------------|

E|-/8t12p10p8t13p10p8t13p10p8---------------10p8p7-------------|
B|----------------------------10p8p7----8p7-----------8p7------|
G|-----------------------------------10------------10-----5/7~-|
D|-------------------------------------------------------------|
A|-------------------------------------------------------------|
E|-------------------------------------------------------------|

E|---------------------------------------------------------------------|
B|---------------------------------------------------------1010---1010-|
G|---------------------------------------------------------1010---1010-|
D|-/5h7p5h7p5h7p5h7p5h7p5h7p5~-/7h9p7h9p7h9p7h9p7h9~----xx------xx-----|
A|---------------------------------------------------//-xx------xx-----|
E|---------------------------------------------------------------------|

E|----------------------------------------------------------------13p12-|
B|----1010---101010----1010/12~~-------------------------13p12h14-------|
G|----1010---101010----1010/12~~----------------13p12h14----------------|
D|-xx------x--------xx-----------------13p12h14-------------------------|
A|-xx------x--------xx----------/12h14----------------------------------|
E|----------------------------------------------------------------------|
PM                              *************** 

E|----13p12----13p12----13p12/15-------15-------15/17-------17-------20~~-|
B|-14-------14-------14----------18p16----18p16-------19p18----19p18-20~~-|
G|------------------------------------------------------------------------|
D|------------------------------------------------------------------------|
A|------------------------------------------------------------------------|
E|------------------------------------------------------------------------|

Chorus
E|--------------------------------------------------------------------|
B|--------------------------------------------------------------------|
G|-2-----3------4----------5\4----------------2-----3/4-----7-----5---|
D|-2-----3------4-5----5/6-5\4-5/6----------4-2-----3/4-----7-----5-3-|
A|-0-00001-1111/2-5----5/6-3\2-5/6------2h4---0-00001/2-22225-55553-3-|
E|----------------3-3333/4-----3/4-4444-----------------------------1-|
PM   ****  ****     ***            ****         ****    ****  **** 
Добавлено: 17.07.2013
Другие материалы по этой песне:
  • Аккорды и текст

Страница создана 17.07.2013
http://primanota.ru/washya/lost-world-chords.htm
Привет, Гость.
Предлагаем пройти революционный курс по гитаре.
Подарок от PrimaNota.Ru, забирай!