PrimaNota.ru - самый крупный в мире бесплатный архив песенных текстов, аккордов, табулатур и нот


Washya - Cesspool - таба, видео

Регистрация Запомнить меня
Войти через:  Facebook Google Twitter Vk Yandex Mail.ru

Washya - Cesspool - таба, видео

Печатать
Просмотров: 60
-----------------------------------------------------------------------------
                             Cesspool  - Washya
-----------------------------------------------------------------------------
Tuning: Standard (EBGDAE)
intro
E|------------------------------------------------------------------------|
B|------------------------------------------------------------------------|
G|------------------------------------------------------------------------|
D|-11--------------------11--------------------1--------------------------|
A|-33-xx-x-x-xxxxx-x-x-x-33-xx-x-x-xxxxx-x-x-x-3-----------------333222-2-|
E|-33-xx-x-x-xxxxx-x-x-x-33-xx-x-x-xxxxx-x-x-x-3-333222666111333--------0-|
PM                                               *************** ****** 

Main Riff
E|---------------------------------------------------|
B|---------------------------------------------------|
G|---------------------------------------------------|
D|-1/2-----1\2---------6\7-----2\1-------------------|
A|-2/3-2/3-2\3-1\2-----5\6-4\6-3\2-2-----------------|
E|-----3/4-----2\3-000-----3\5-----0-000-3p2p0-2p0-2-|
PM                 ***               *** ***** *** * 

Verses
E|-----------|
B|-----------|
G|-----------|
D|-----------|
A|-3-2-3/6\5-|
E|-1-0-1/4\3-|
Добавлено: 01.10.2013
Другие материалы по этой песне:
  • Аккорды и текст

Страница создана 01.10.2013
http://primanota.ru/washya/cesspool-chords.htm
Привет, Гость.
Предлагаем пройти революционный курс по гитаре.
Подарок от PrimaNota.Ru, забирай!