PrimaNota.ru - самый крупный в мире бесплатный архив песенных текстов, аккордов, табулатур и нот


Washya - Chamber Of Sorrow - таба, видео

Регистрация Запомнить меня
Войти через:  Facebook Google Twitter Vk Yandex Mail.ru

Washya - Chamber Of Sorrow - таба, видео

Печатать
Просмотров: 59
-------------------------------------------------------------------------------
                      Chamber Of Sorrow - Washya
-------------------------------------------------------------------------------
Tuning: Standard (ebgDAE) 

Intro
e|---------------------------------|
B|---------------------------------|
G|---------------------------------|
D|---------------------------------|
A|---------------------------------|
E|-0000-000-000-00--0000-0-0-00000-|
pm .... ... ... ..  .... . . ..... 

Main Riff
e|--------------------------------------------------|
B|--------------------------------------------------|
G|----------------------------------------------14~-|
D|-------------------------------------------12-----|
A|-10-7---------7-9h10------7-7-10-7----7-10--------|
E|------10-7-10--------7-10----------10-------------|x3

Verses
e|-------------------------------------------------|
B|-------------------------------------------------|
G|---------------------------------------------17~-|
D|------------------------11~------------13-14-----|
A|-------5-7-9b-------7-9-----------9-11-----------|
E|-000-3--------000-5---------000-7----------------|
pm ...          ...           ... 

Chorus
e|---------------------------------------------------|
B|---------------------------------------------------|
G|----------------------------------5~---------------|
D|-4-4-3-3-2-----2~-4-4-3-3-7-7---7----7-7-6-6-3-3-2-|
A|-4-4-3-3-2-2-3----4-4-3-3-7-7-5------7-7-6-6-3-3-2-|
E|-2-2-1-1-0--------2-2-1-1-5-5--------5-5-4-4-1-1-0-|
Добавлено: 11.06.2013
Другие материалы по этой песне:
  • Аккорды и текст

Страница создана 11.06.2013
http://primanota.ru/washya/chamber-of-sorrow-chords.htm
Привет, Гость.
Предлагаем пройти революционный курс по гитаре.
Подарок от PrimaNota.Ru, забирай!