PrimaNota.ru - самый крупный в мире бесплатный архив песенных текстов, аккордов, табулатур и нот


Washya - Black Night - таба, видео

Регистрация Запомнить меня
Войти через:  Facebook Google Twitter Vk Yandex Mail.ru

Washya - Black Night - таба, видео

Печатать
Просмотров: 68
-----------------------------------------------------------------------------
                         Black Night - (Instrumental) Washya
-----------------------------------------------------------------------------
Tuning: Standard (ebgDAE) 

Intro
e|------------|
b|------------|
g|------------|
D|------------|
A|-----4---5~-|
E|-2-2---2----|x3

Instrumental 
e|-------------------------------------------7h10p7h10p7h9p7h9p7--------|
b|-----------------------------------------8----------------------------|
g|-----------------9---9---9---7---7---7-9-----------------------9-7-9--|
D|-7-9---5-7-9----------------------------------------------------------|
A|-----9-------7-7---7---7---7---7---7----------------------------------|
E|----------------------------------------------------------------------|

e|-----------------------------------------------------------------------9-|
b|--------12---------------------------------------------------------6-7-9-|
g|-9-9h11----12-11-9-9h11----9h11----9h11----9h11--------------6-8-9-------|
D|------------------------11------11------11------11-----6-8-9-------------|
A|---------------------------------------------------9-7-------------------|
E|-------------------------------------------------------------------------|

e|-9~-9h12p9h12p9h13p9h13p9h12p9h12p9-10h13p10h13p10h14p10h14p10----|
b|-9~---------------------------------------------------------------|
g|------------------------------------------------------------------|
D|------------------------------------------------------------------|
A|------------------------------------------------------------------|
E|------------------------------------------------------------------|

e|-10b-10h11p10h11p10-8h10p8h10p8-7h8p7h8p7-5h7p5h7-4h5p4h5-----------|
b|----------------------------------------------------------5b-3------|
g|--------------------------------------------------------------------|
D|--------------------------------------------------------------------|
A|--------------------------------------------------------------------|
E|--------------------------------------------------------------------|

e|-2h5p2h5p2h4p2h4p2/4h7p4h7p4p8p4h8/6h9p6h9p6h8p6h8p6/9h12p9h12p9h13p9h13-|
b|-------------------------------------------------------------------------|
g|-------------------------------------------------------------------------|
D|-------------------------------------------------------------------------|
A|-------------------------------------------------------------------------|
E|-------------------------------------------------------------------------|

e|-/11h14p11h14p11h13p11h13p11/13h16p13h16p13h15p13h15p13/15h18p15h18p15-|
b|-----------------------------------------------------------------------|
g|-----------------------------------------------------------------------|
D|-----------------------------------------------------------------------|
A|-----------------------------------------------------------------------|
E|-----------------------------------------------------------------------|

e|-15h17p15h17p15h17b-17-19b~---------------------------------------------|
b|----------------------------19-17-16------------------------------------|
g|-------------------------------------19-17-16---------------------------|
D|----------------------------------------------16-14-13-16-14-13---------|
A|----------------------------------------------------------------12-10-9-|
E|------------------------------------------------------------------------|

e|-------------------------------------------------------------------------|
b|---------------------------------------------------------------12-10-----|
g|-------------------------------------------------7-8-10-7-8-10-------12~-|
D|----------------6-7-9-------6-7-9---------7-8-10-------------------------|
A|-9b-6-7-9-6-7-9-------6-7-9-------7-8-10---------------------------------|
E|-------------------------------------------------------------------------|
Добавлено: 07.07.2013
Другие материалы по этой песне:
  • Аккорды и текст

Страница создана 07.07.2013
http://primanota.ru/washya/black-night-chords.htm
Привет, Гость.
Предлагаем пройти революционный курс по гитаре.
Подарок от PrimaNota.Ru, забирай!