PrimaNota.ru - самый крупный в мире бесплатный архив песенных текстов, аккордов, табулатур и нот


Washya - Bleeding Black And Blue - таба, видео

Регистрация Запомнить меня
Войти через:  Facebook Google Twitter Vk Yandex Mail.ru

Washya - Bleeding Black And Blue - таба, видео

Печатать
Просмотров: 43
-----------------------------------------------------------------------------
             Bleeding Black And Blue - Washya
-----------------------------------------------------------------------------
Tuning: Drop D (DADGBE)
Intro
E|--------------------------------------------|
B|--------------------------------------------|
G|--------------------------------------------|
D|--------------------------------------------|
A|--5-7-5-8-7-5-7-0-3-0-6-5-3-5-1-3-1-4-3-1-0-|
D|--5-7-5-8-7-5-7-0-3-0-6-5-3-5-1-3-1-4-3-1-0-|x2

Part 2
E|-----------------------------------|
B|-----------------------------------|
G|-----------------------------------|
D|-----------------------------------|
A|-777/8-55/7-777/8-55/7-777/8\7\5\3-|
D|-777/8-55/7-777/8-55/7-777/8\7\5\3-| 2nd time palm mute 

Chorus
E|------------------------------------------------------------------------|
B|------------------------------------------------------------------------|
G|------------------------------------------------------------------------|
D|------------------------------------------------------------------------|
A|--------5555555555555/77777777777/1010101010101010\88888888888-55555555-|
D|-//xx\\-5555555555555/77777777777/1010101010101010\88888888888-55555555-|

E|-------------------------------------------|
B|-------------------------------------------|
G|-------------------------------------------|
D|-------------------------------------------|
A|-11111111-4-3-1/6-5-3-6-5-333333-00-00-000-|
D|-11111111-4-3-1/6-5-3-6-5-333333-00-00-000-|

Lead
E|-----------------------------------------------------------------15h17b~-|
B|-17b~----19b~-19bp17----17b\15bp13----13bp12------------14h16-16---------|
G|------18-------------18------------14--------14p12~-/15------------------|
D|-------------------------------------------------------------------------|
A|-------------------------------------------------------------------------|
D|-------------------------------------------------------------------------|

Tuning: Drop D (DADGBE)
Intro
E|--------------------------------------------|
B|--------------------------------------------|
G|--------------------------------------------|
D|--------------------------------------------|
A|--5-7-5-8-7-5-7-0-3-0-6-5-3-5-1-3-1-4-3-1-0-|
D|--5-7-5-8-7-5-7-0-3-0-6-5-3-5-1-3-1-4-3-1-0-|x2

Part 2
E|-----------------------------------|
B|-----------------------------------|
G|-----------------------------------|
D|-----------------------------------|
A|-777/8-55/7-777/8-55/7-777/8\7\5\3-|
D|-777/8-55/7-777/8-55/7-777/8\7\5\3-| 2nd time palm mute 

Chorus
E|------------------------------------------------------------------------|
B|------------------------------------------------------------------------|
G|------------------------------------------------------------------------|
D|------------------------------------------------------------------------|
A|--------5555555555555/77777777777/1010101010101010\88888888888-55555555-|
D|-//xx\\-5555555555555/77777777777/1010101010101010\88888888888-55555555-|

E|-------------------------------------------|
B|-------------------------------------------|
G|-------------------------------------------|
D|-------------------------------------------|
A|-11111111-4-3-1/6-5-3-6-5-333333-00-00-000-|
D|-11111111-4-3-1/6-5-3-6-5-333333-00-00-000-|
Добавлено: 18.06.2013
Другие материалы по этой песне:
  • Аккорды и текст

Страница создана 18.06.2013
http://primanota.ru/washya/bleeding-black-and-blue-chords.htm
Привет, Гость.
Предлагаем пройти революционный курс по гитаре.
Подарок от PrimaNota.Ru, забирай!