PrimaNota.ru - самый крупный в мире бесплатный архив песенных текстов, аккордов, табулатур и нот


Volumes - Reversion - таба, видео

Регистрация Запомнить меня
Войти через:  Facebook Google Twitter Vk Yandex Mail.ru

Volumes - Reversion - таба, видео

Печатать
Просмотров: 65
-------------------------------------------------------------------------------
                             Reversion - Volumes
-------------------------------------------------------------------------------
Tabbed by: J.R. Moore
E-mail: dogsrule2308@gmail.com

Tuning: E A# D F# G# C#  Repeats Throughout Whole Interlude (picked or finger picked)

C#|-------------0-----------------0-----------------0-----------------0----------|
G#|----------0-----0-----------0----0------------0----0------------0-----0-------|
F#|-------0----------0------0---------0-------0---------0-------0-----------0----|
D |----3-----------------3-----------------3-----------------3-------------------|
A#|--5-----------------5-----------------3-----------------3---------------------|
E |------------------------------------------------------------------------------|

e|--------------0--------------0------------------0--------------------0---------|
B|--------------------------0----0-------------0-----0--------------0-----0------|
G|----------0------------0---------0--------0----------0---------0-----------0---|
D|-------3------------3------------------3--------------------3------------------|
A|----0------------1------------------1------------------------------------------|
E|---------------------------------------------------------4---------------------|

e|--------------0-------------0---------------0------------------0---------------|
B|-----------------------------------------0-----0------------0-----0------------|
G|----------0-------------0-------------0----------0-------0----------0----------|
D|-------3-------------3-------------3------------------3------------------------|
A|----1-------------3-------------5------------------5---------------------------|
E|-------------------------------------------------------------------------------|

e|----------------0--------------------0-----------------0--------------0--------|
B|-------------0-----0--------------0-----0--------------------------0----0------|
G|----------0-----------0--------0-----------0--------0-----------0---------0----|
D|-------4--------------------4--------------------3-----------3-----------------|
A|----7--------------------7--------------------0-----------1--------------------|
E|-------------------------------------------------------------------------------|

e|----------------0--------------------0-----------------0-----------0----------||
B|-------------0-----0--------------0-----0-------------------------------------||
G|----------0-----------0--------0-----------0--------0-----------0-------------||
D|-------3--------------------3--------------------3-----------3----------------|| 
A|----1-----------------------------------------1-----------3-------------------||
E|-------------------------4----------------------------------------------------||


************************************

| /   slide up
| \   slide down
| h   hammer-on
| p   pull-off
| ~   vibrato
| +   harmonic
| x   Mute note
| b   Bend
| pb  Pre-bend
| br  Bend release
| pbr Pre-bend release
| brb Bend release bend

************************************
Добавлено: 17.11.2015
Другие материалы по этой песне:
  • Аккорды и текст

Страница создана 17.11.2015
http://primanota.ru/volumes/reversion-chords.htm
Привет, Гость.
Предлагаем пройти революционный курс по гитаре.
Подарок от PrimaNota.Ru, забирай!