PrimaNota.ru - самый крупный в мире бесплатный архив песенных текстов, аккордов, табулатур и нот


Volumes - Erased - таба, видео

Регистрация Запомнить меня
Войти через:  Facebook Google Twitter Vk Yandex Mail.ru

Volumes - Erased - таба, видео

Печатать
Просмотров: 148
-------------------------------------------------------------------------------
                             ERASED - VOLUMES
-------------------------------------------------------------------------------
Tabbed by: Kristyn Lee
E-mail: spot_the_village_loony_836@hotmail.com

Tuning:  G# D# G# C# F# A# D#


INTRO

I hear 3 guitars playing the intro, here are their parts.


GUITAR 1
D#|-----------------------------------------------------------|
A#|-----------------------------------------------------------|
F#|-----------------------------------------------------------|
C#|---4-7-4-5-7-4-5-7-4-5-7-4-5-7-4-5-7-4-5-7-4-5-7-4-5-7-----|
G#|-----------------------------------------------------------|
D#|-----------------------------------------------------------|
G#|-----------------------------------------------------------|

GUITAR 2
D#|-----15--15--15--15-----15--15--15--15---12--12--12--12--12--12----------------|
A#|---12--12--12--12--12/13--13--13--13---15--15--15--15--15--15---12/13-12/13----|
F#|-------------------------------------------------------------------------------|
C#|-------------------------------------------------------------------------------|
G#|-------------------------------------------------------------------------------|
D#|-------------------------------------------------------------------------------|
G#|-------------------------------------------------------------------------------|

GUITAR 3     (strum these chords, listen for pattern)
D#|----0--------777---7-------0----0-----0----------------|
A#|----0--------777---7-------0----0-----0----------------|
F#|----0--------555---5-------0----0-----0----------------|
C#|----5--------------------------------------------------|
G#|----3---0-0------0-----5-5---5----5-5------------------|
D#|--------0-0------0-----5-5---5----5-5------------------|
G#|--------0-0------0-----5-5---5----5-5------------------|

-------------------------------------------------------------------------------------|

VERSE

   "I've been..."
D#|--------------------------------------------------------|
A#|--------------------------------------------------------|
F#|------------------------12----12------------------------|
C#|------------------12p0----10p9--10p9-10p9---------------|
G#|---12p0-14p0-15p0---------------------------------------|
D#|--------------------------------------------------------|
G#|--------------------------------------------------------|
   "erased from the old me..." 
D#|--------------------------------------------------------|
A#|--------------------------------------------------------|
F#|------------------------16-----16-----------------------|
C#|------------------14p0----14p12--14p12-14p12------------|
G#|---14p0-15p0-17p0---------------------------------------|
D#|--------------------------------------------------------|
G#|--------------------------------------------------------|
   "can you tell..."
D#|--------------------------------------------------------|
A#|-------------------------15-----15----------------------|
F#|---------------------------12p11--12p11-12p11-----------|
C#|--------------------------------------------------------|
G#|--------------------------------------------------------|
D#|---12p0-14p0-15p0-15p14---------------------------------|
G#|--------------------------------------------------------|
   "again..."
D#|--------------------------------------------------------|
A#|-------------------------15-----15----------------------|
F#|---------------------------12p11--12p11-12p11-----------|
C#|--------------------------------------------------------|
G#|------------------12p0----------------------------------|
D#|---12p0-14p0-15p0---------------------------------------|
G#|--------------------------------------------------------|

-------------------------------------------------------------------------------------|

CHORUS   

"I thought you'd hate me..."

D#|--------------------------------------------------------------------------|
A#|--------------------------------------------------------------------------|
F#|--------------------------------------------------------------------------|
C#|--------------------------------------------------------------------------|   x2
G#|-------------------------------------------9----9---9---7---7-------------|
D#|------5-----5-----------7-------------------------------------------------|
G#|---0-----0------2-3--3----3---0h3p0-3/5--7----7---7---5---5---5-0h5h7-----|


-------------------------------------------------------------------------------------|

2ND VERSE

The 1st guitar plays the same riff in the 1st verse.

The 2nd guitar's riffs are delayed. 

0:57
D#|------------------------------|
A#|------------------------------|
F#|---12-----------12------------|
C#|------10p9-9h10----10---------|
G#|------------------------------|
D#|------------------------------|
G#|------------------------------|
1:07
D#|--------------------|
A#|--------------------|
F#|---11h12h9p11-------|
C#|--------------------|
G#|--------------------|
D#|--------------------|
G#|--------------------|
1:09
D#|-------------------------------------------------------------15------|
A#|----------------------------------------12---------------------------|
F#|---14p12p11--11h12h14p12--14p12p11-11h12--12---14p12p11-11h12--12----|
C#|---------------------------------------------------------------------|
G#|---------------------------------------------------------------------|
D#|---------------------------------------------------------------------|
G#|---------------------------------------------------------------------|

-------------------------------------------------------------------------------------------|

1:16  REPEAT CHORUS

"I thought you'd hate me..."

D#|----------------------------------------------------------------------------|
A#|----------------------------------------------------------------------------|
F#|----------------------------------------------------------------------------|
C#|----------------------------------------------------------------------------|   x2
G#|-------------------------------------------9----9---9---7---7---------------|
D#|------5-----5-----------7---------------------------------------------------|
G#|---0-----0------2-3--3----3---0h3p0-3/5--7----7---7---5---5---5-0h5h7-------|


-------------------------------------------------------------------------------------------|

1:35    "I thought you knew..."


D#|-----------------------------------|
A#|-----------------------------------|
F#|-----------------------------------|
C#|-----------------------------------|
G#|-----------------------------------|
D#|---0--0--00--0--0--0---------------|
G#|---0--0--00--0--0--0---------------|
      .  .  ..  .  .  .

-----------------------------------------------------------------------------------|

Djenty breakdown   

D#|---------------------------------------------------------------------------|
A#|---------------------------------------------------------------------------|
F#|---------------------------------------------------------------------------|  x2
C#|---------------------------------------------------------------------------|
G#|---------------------------------------------------------------------------|
D#|---0--0--00-0--00-0-0--0--0--000-0--0--00-0--0--00-0--000-0-0----00-0------|
G#|---0--0--00-0--00-0-0--0--0--000-0--0--00-0--0--00-0--000-0-0----00-0------|
      .  .  .. .  .. . .  .  .  ... .  .  .. .  .  .. .  ... . .    .. .

Play this tapping riff x2
            
D#|------------------|    |-------------|
A#|--------12t-------|    |-------9t----|
F#|------------------|    |-------------|
C#|---9h10-----------|x10 |---6h7-------|x10
G#|------------------|    |-------------|
D#|------------------|    |-------------|
G#|------------------|    |-------------|

-----------------------------------------------------------------------------------|

1:57  
"it's hard enough..."
D#|------------------------------------------------------------------------|
A#|------------------------------------------------------------------------|
F#|------------------------------------------------------------------------|
C#|------------------------------------------------------------------------|  x2
G#|------------------------------------------------------------------------|
D#|---3--3--33-3--33-3-3--3--3--333-3-3-33-0--0--00-0--000-0-0-00-0-0------|
G#|---3--3--33-3--33-3-3--3--3--333-3-3-33-0--0--00-0--000-0-0-00-0-0------|

      t   t   t   t   t
D#|-------------------------------|
A#|---12--13--15--17--12----------|
F#|-------------------------------|  x2
C#|-------------------------------|
G#|-------------------------------|
D#|-------------------------------|
G#|-------------------------------|

-----------------------------------------------------------------------------------|

2:19

D#|------------------------------------------|
A#|------------------------------------------|
F#|------------------------------------------|   x2
C#|------------------------------------------|
G#|----3~-------0~-------7~----7~------------|
D#|----3~-------0~-------5~----5~------------|
G#|----3~-------0~-------5~----5~------------|


2:38   REPEAT CHORUS x4


3:16
Last riff
D#|------------------------------------------------|
A#|------------------------------------------------|
F#|---12-14-12-14/16-14--12-14-12-14/16-14---------|
C#|------------------------------------------------|
G#|------------------------------------------------|
D#|------------------------------------------------|
G#|------------------------------------------------|

D#|------------------------------------------------|
A#|---15-------15------------------15-15/17--------|
F#|------14-12------14-12-11-12-11-----------------|
C#|------------------------------------------------|
G#|------------------------------------------------|
D#|------------------------------------------------|
G#|-----------------------------------------------|



************************************

| /   slide up
| \   slide down
| h   hammer-on
| p   pull-off
| ~   vibrato
| +   harmonic
| .   Mute note
| b   Bend
| pb  Pre-bend
| br  Bend release
| pbr Pre-bend release
| brb Bend release bend

************************************
Добавлено: 17.11.2015
Вам также может быть интересно:
Другие материалы по этой песне:

Страница создана 17.11.2015
http://primanota.ru/volumes/erased-chords.htm
Привет, Гость.
Предлагаем пройти революционный курс по гитаре.
Подарок от PrimaNota.Ru, забирай!