PrimaNota.ru - самый крупный в мире бесплатный архив песенных текстов, аккордов, табулатур и нот


Volumes - Wormholes - таба, видео

Регистрация Запомнить меня
Войти через:  Facebook Google Twitter Vk Yandex Mail.ru

Volumes - Wormholes - таба, видео

Печатать
Просмотров: 99
Hi.

I only have up to where the first big breakdown ends,
but it's better than nothing

here you go.
rate/comment please...

Tuning:
A E A D G B E

Intro: (Kinda Quiet)
E|------------------------------||--------------|
B|------------------------------||--------------|
G|------------------------------||--------------|
D|------------------------------||--------------|
A|------------------------------||--------------|
E|---7b---7b-----7b---7b--------||---7b---5-----|
A|------3----3-3----3----3--3---||------3---2---|

E|------------------------------||--------------|
B|------------------------------||--------------|
G|------------------------------||--------------|
D|------------------------------||--------------|
A|------------------------------||--------------|
E|---4b---4b-----4b---4b--------||---4b---5-----|
A|------0----0-0----0----0--0---||------0---2---|

E|------------------------------|
B|------------------------------|
G|------------------------------|
D|------------------------------|
A|------------------------------|
E|---7b---7b-----7b---7b--------|
A|------3----3-3----3----3--3---|

E|-------------------------------------------|
B|------10----10----10-----13----13-----13---|
G|---13----13----13-----16----16-----16------|
D|-------------------------------------------|  Repeat A Few Times
A|-------------------------------------------|
E|-------------------------------------------|
A|-------------------------------------------|

E|--------|
B|--------|
G|--------|
D|--------|
A|---0~---|
E|---0~---|
A|---0~---|

E|------------------------------||-----------------|
B|------------------------------||-----------------|
G|------------------------------||-----------------|
D|------------------------------||-----------------|
A|------------------------------||-----------------|
E|------------------------------||---0-0-0-0-0-0---|
A|---1b-0-0---1b-0-1b-0-0---0-0-||---0-0-0-0-0-0---|

Repeat Above A Few Times

E|--------------------------------||-----------------||-----------------|
B|--------------------------------||-----------------||-----------------|
G|--------------------------------||-----------------||-----------------|
D|--------------------------------||-----------------||-----------------|
A|--------------------------------||---2-------------||---5-------------|
E|--------------------------------||-----1-5---4-----||-----4-8---7-----|
A|---1-1-1-1-1b--1-1-1-1-1-1-1b---||---------1---0---||---------4---3---|

E|------------------------------------|
B|------------------------------------|
G|------------------------------------|
D|------------------------------------|
A|------------------------------------|
E|------------------------------------|
A|---0-1b--0-0-0-1b--0-1b--0-0-0-1b---|

E|--------------------------------------------------|
B|--------------------------------------------------|
G|--------------------------------------------------|
D|--------------------------------------------------|
A|--------------------------------------------------|
E|---0--0-0-0-0-0-0--0--0-0-0--0-0--0-0-0-0-0-0-0---|
A|---0--0-0-0-0-0-0--0--0-0-0--0-0--0-0-0-0-0-0-0---|

E|------------------------------------------------------------------|
B|------------------------------------------------------------------|
G|------------------------------------------------------------------|
D|------------------------------------------------------------------|
A|------------------------------------------------------------------|
E|---0--0-0-0-0-0-0--0--0-0-0--0-0-0-0-0-0--0--0-0-0--0-0-0-0-0-0---|
A|---0--0-0-0-0-0-0--0--0-0-0--0-0-0-0-0-0--0--0-0-0--0-0-0-0-0-0---|

E|------------------------------------------------------------|
B|------------------------------------------------------------|
G|------------------------------------------------------------|
D|------------------------------------------------------------|
A|------------------------------------------------------------|
E|-------7----------7-----7----------7----------7-----7-------|
A|---3-3---3-3--3-3---3-3---3-3--3-3---3-3--3-3---3-3---3-3---|

E|------------------------------------------------------------|
B|------------------------------------------------------------|
G|------------------------------------------------------------|
D|------------------------------------------------------------|
A|------------------------------------------------------------|
E|-------4----------4-----4----------4----------4-----4-------|
A|---0-0---0-0--0-0---0-0---0-0--0-0---0-0--0-0---0-0---0-0---|


I know it's not perfect, so go easy on the rating/commenting please.

Thanks for looking
Добавлено: 30.06.2013
Другие материалы по этой песне:

Страница создана 09.04.2012
http://primanota.ru/volumes/wormholes-chords.htm
Привет, Гость.
Предлагаем пройти революционный курс по гитаре.
Подарок от PrimaNota.Ru, забирай!