PrimaNota.ru - самый крупный в мире бесплатный архив песенных текстов, аккордов, табулатур и нот


Violent Soho - Ok Cathedral - таба, видео

Регистрация Запомнить меня
Войти через:  Facebook Google Twitter Vk Yandex Mail.ru

Violent Soho - Ok Cathedral - таба, видео

Печатать
Просмотров: 88
-------------------------------------------------------------------------------
                             OK CATHEDRAL - Violent Soho
-------------------------------------------------------------------------------
Tabbed by: Matt Roberts
E-mail: mattroberts1235@gmail.com

Tuning: Drop D (DADGBe)
==============================================================================
Introduction x2

Guitar 1 
e|---------------------------------------------------------------------------|
B|---------------------------------------------------------------------------|
G|--------------4---6---4-------4~---------4---6---4-------4-----------------|
D|--4---4---7---------------7----------7---------------7-------7-------------|
A|---------------------------------------------------------------------------|
D|--0------------------------------------------------------------------------| x2
 
e|---------------------------------------------------------------------------|
B|---------------------------------------------------------------------------|
G|---------------------------------------------------------------------------|
D|--4---4---7-----------7-------7---9-------9---7-------5--------------------|
A|---------------------------------------------------------------------------|
D|--4-----------4---4-------4-----------5-----------5------------------------|


==============================================================================
Verse 1 

Guitar 1
e|---------------------------------------------------------------------------|
B|---------------------------------------------------------------------------|
G|--------------4---6---4-------4~---------4---6---4-------4-----------------|
D|--4---4---7---------------7----------7---------------7-------7-------------|
A|---------------------------------------------------------------------------|
D|--0------------------------------------------------------------------------| x2
 
e|---------------------------------------------------------------------------|
B|---------------------------------------------------------------------------|
G|---------------------------------------------------------------------------|
D|--4---4---7-----------7-------7---9-------9---7-------5--------------------|
A|---------------------------------------------------------------------------|
D|--4-----------4---4-------4-----------5-----------5------------------------|

 ============================================================================
 Chorus

Guitar 1
e|---------------------------------------------------------|
B|---------------------------------------------------------|
G|---------------------------------------------------------|
D|--9---9-----4--4--4---5----5--5-----0----0---0---0-------|
A|--9---9-----4--4--4---5----5--5-----0----0---0---0-------|
D|--9---9-----4--4--4---5----5--5-----0----0---0---0-------| x3

e|---------------------------------------------------------|
B|---------------------------------------------------------|
G|---------------------------------------------------------|
D|--5---5-----5--5--5---0----0--0-----0----0---0---0-------|
A|--5---5-----5--5--5---0----0--0-----0----0---0---0-------|
D|--5---5-----5--5--5---0----0--0-----0----0---0---0-------|

e|---------------------------------------------------------|
B|---------------------------------------------------------|
G|---------------------------------------------------------|
D|--5---5-----5--5--5---0--0--0--0-----4---4---4---4-------|
A|--5---5-----5--5--5---0--0--0--0-----4---4---4---4-------|
D|--5---5-----5--5--5---0--0--0--0-----4---4---4---4-------|

e|---------------------------------------------------------|
B|---------------------------------------------------------|
G|---------------------------------------------------------|
D|--5--5--5--5--5--5--5--5--5--5--5--5--4--4--4--4---------|
A|--5--5--5--5--5--5--5--5--5--5--5--5--4--4--4--4---------|
D|--5--5--5--5--5--5--5--5--5--5--5--5--4--4--4--4---------|

Guitar 2
e|---------------------------------------------------------|
B|---------------------------------------------------------|
G|----11----11----11----11----11----11----11----11---------|
D|---------------------------------------------------------|
A|---------------------------------------------------------|
D|---------------------------------------------------------| x3

e|---------------------------------------------------------|
B|---------------------------------------------------------|
G|----11-9--7--9---7--7---9------7---9---11---9---7--------|
D|---------------------------------------------------------|
A|---------------------------------------------------------|
D|---------------------------------------------------------|

e|---------------------------------------------------------|
B|---------------------------------------------------------|
G|----11-9--7---9---7---9--------7---9---11---9---7--------|
D|---------------------------------------------------------|
A|---------------------------------------------------------|
D|---------------------------------------------------------|

e|---------------------------------------------------------|
B|---------------------------------------------------------|
G|----11----11----11----11----11----11----11----11---------|
D|---------------------------------------------------------|
A|---------------------------------------------------------|
D|---------------------------------------------------------| x2

===============================================================
Bridge x2

Guitar 1 
e|---------------------------------------------------------------------------|
B|---------------------------------------------------------------------------|
G|--------------4---6---4-------4~---------4---6---4-------4-----------------|
D|--4---4---7---------------7----------7---------------7-------7-------------|
A|---------------------------------------------------------------------------|
D|--0------------------------------------------------------------------------| x2
 
e|---------------------------------------------------------------------------|
B|---------------------------------------------------------------------------|
G|---------------------------------------------------------------------------|
D|--4---4---7-----------7-------7---9-------9---7-------5--------------------|
A|---------------------------------------------------------------------------|
D|--4-----------4---4-------4-----------5-----------5------------------------|

Guitar 2

e|---------------------------------------------------------|
B|---------------------------------------------------------|
G|---------------------------------------------------------|
D|--0--0--0--0--0--0--0--0--0--0--0--0--0--0--0--0---------|
A|--0--0--0--0--0--0--0--0--0--0--0--0--0--0--0--0---------|
D|--0--0--0--0--0--0--0--0--0--0--0--0--0--0--0--0---------| x2


e|---------------------------------------------------------|
B|---------------------------------------------------------|
G|---------------------------------------------------------|
D|--4--4--4--4--4--4--4--4--5--5--5--5--5--5--5--5---------|
A|--4--4--4--4--4--4--4--4--5--5--5--5--5--5--5--5---------|
D|--4--4--4--4--4--4--4--4--5--5--5--5--5--5--5--5---------|

================================================================
Verse 2

Guitar 1 
rest
rest
e|---------------------------------------------------------------------------|
B|---------------------------------------------------------------------------|
G|--------------4---6---4-------4~---------4---6---4-------4-----------------|
D|--4---4---7---------------7----------7---------------7-------7-------------|
A|---------------------------------------------------------------------------|
D|--0------------------------------------------------------------------------| 

rest
rest
e|---------------------------------------------------------------------------|
B|---------------------------------------------------------------------------|
G|--------------4---6---4-------4~---------4---6---4-------4-----------------|
D|--4---4---7---------------7----------7---------------7-------7-------------|
A|---------------------------------------------------------------------------|
D|--0------------------------------------------------------------------------| 

rest 
rest

e|---------------------------------------------------------------------------|
B|---------------------------------------------------------------------------|
G|---------------------------------4-------4---6---4-------4-----------------|
D|-------------------------------------7---------------7-------7-------------|
A|---------------------------------------------------------------------------|
D|---------------------------------5-----------------------------------------| 
==============================================================================
Chorus
==============================================================================
Interlude/ Outro 
Epic part of the song, but difficult to tab as it is very disjointed. 
Take the following as inspiration on finding something to play that 
sounds right. 

Guitar 1

e|---------------------------------------------------------| ------|
B|---12----12----12----12-----12--12----11-11-11-11--------| ------|
G|---15-15-15-15-15-15-15-15--15--15----14-14-14-14--------| ------|
D|---------------------------------------------------------| ------|
A|---------------------------------------------------------| --\7--|
D|---------------------------------------------------------| ------|

Guitar 2 

e|---------------------------------------------------------|
B|---------------------------------------------------------|
G|---------------------------------------------------------|
D|--12-----------------------------------------------------|
A|--12-----------------------------------------------------|
D|--12-----------------------------------------------------| keep ringing

Guitar 1
e|---------------------------------------------------------|
B|---------------------------------------------------------|
G|---11-11-12--11-11-11-12-11-11-11-12-11-11-11-12-11------|
D|---------------------------------------------------------|
A|---------------------------------------------------------|
D|---------------------------------------------------------| repeat

e|-------------------------12--------12--------------------|
B|---------------------------------------------------------|
G|---11-11-12--11-11-11-12------12--------12---11~---------|
D|---------------------------------------------------------|
A|---------------------------------------------------------|
D|---------------------------------------------------------|

************************************

| /   slide up
| \   slide down
| ~   vibrato

************************************
==============================================================
Hope you enjoyed, please comment if you have any improvements for the ending
or corrections throughout the song. 

       Matt 
Добавлено: 12.02.2016
Другие материалы по этой песне:
  • Аккорды и текст

Страница создана 12.02.2016
http://primanota.ru/violent-soho/ok-cathedral-chords.htm
Привет, Гость.
Предлагаем пройти революционный курс по гитаре.
Подарок от PrimaNota.Ru, забирай!