PrimaNota.ru - самый крупный в мире бесплатный архив песенных текстов, аккордов, табулатур и нот


Violent Soho - Dumb Machine - таба, видео

Регистрация Запомнить меня
Войти через:  Facebook Google Twitter Vk Yandex Mail.ru

Violent Soho - Dumb Machine - таба, видео

Печатать
Просмотров: 22
Уроки эстрадного вокала в Санкт-Петербурге
I think this is whats actually being played but maybe the top half of each 
bar is just those notes not these power chords but i left it like that cause 
if you can play that you can play the whole thing by yourself  

[Intro]

e|---------------------------------------------------------------------------|
B|---------------------------------------------------------------------------|
G|---------------------------------------------------------------------------| 
D|-5-5-5-5-5-5-5-5-5-5-5--5--5--5-5-5-5-5------------------------------------|
A|-5-5-7-5-5-5-7-5-5-5-10-10-10-5-9-5-7-5------------------------------------|
D|-5-5-5-5-5-5-5-5-5-5-5--5--5--5-5-5-5-5------------------------------------|
                                                                               x2
e|---------------------------------------------------------------------------|
B|---------------------------------------------------------------------------|
G|---------------------------------------------------------------------------| 
D|-5-5-5-5-5-5-5-5-5-5-5-5-5-5-5-5-------------------------------------------|
A|-5-5-5-5-5-5-5-5-5-5-5-5-5-5-5-5-------------------------------------------|
D|-5-5-5-5-5-5-5-5-5-5-5-5-5-5-5-5-------------------------------------------|

e|---------------------------------------------------------------------------|
B|---------------------------------------------------------------------------|
G|---------------------------------------------------------------------------| 
D|-10-10-10-10-10-10-10-10-10-10-10-10-10-10---------------------------------|
A|-10-10-12-10-10-10-12-10-10-10-12-14-10-12---------------------------------|
D|-10-10-10-10-10-10-10-10-10-10-10-10-10-10---------------------------------|
                                                                               x2
e|---------------------------------------------------------------------------|
B|---------------------------------------------------------------------------|
G|-5-5-5-5-5-5-5-5-5-5-5-5-5-5-5---------------------------------------------| 
D|-5-5-5-5-5-5-5-5-5-5-5-5-5-5-5---------------------------------------------|
A|-3-3-3-3-3-3-3-3-3-3-3-3-3-3-3---------------------------------------------|
D|---------------------------------------------------------------------------|


[Verse]

Ball and chain, look behind you it's all the same
e|---------------------------------------------------------------------------|
B|---------------------------------------------------------------------------|
G|---------------------------------------------------------------------------| 
D|-5-5-5-5-5-5-5-5-5-5-5--5--5--5-5-5-5-5------------------------------------|
A|-5-5-7-5-5-5-7-5-5-5-10-10-10-5-9-5-7-5------------------------------------|
D|-5-5-5-5-5-5-5-5-5-5-5--5--5--5-5-5-5-5------------------------------------|
                                                                               x2
e|---------------------------------------------------------------------------|
B|---------------------------------------------------------------------------|
G|---------------------------------------------------------------------------| 
D|-5-5-5-5-5-5-5-5-5-5-5-5-5-5-5-5-------------------------------------------|
A|-5-5-5-5-5-5-5-5-5-5-5-5-5-5-5-5-------------------------------------------|
D|-5-5-5-5-5-5-5-5-5-5-5-5-5-5-5-5-------------------------------------------|


At your filth and your cigarette burns, I knew you would never learn
e|---------------------------------------------------------------------------|
B|---------------------------------------------------------------------------|
G|---------------------------------------------------------------------------| 
D|-10-10-10-10-10-10-10-10-10-10-10-10-10-10---------------------------------|
A|-10-10-12-10-10-10-12-10-10-10-12-14-10-12---------------------------------|
D|-10-10-10-10-10-10-10-10-10-10-10-10-10-10---------------------------------|
                                                                               x2
e|---------------------------------------------------------------------------|
B|---------------------------------------------------------------------------|
G|-5-5-5-5-5-5-5-5-5-5-5-5-5-5-5---------------------------------------------| 
D|-5-5-5-5-5-5-5-5-5-5-5-5-5-5-5---------------------------------------------|
A|-3-3-3-3-3-3-3-3-3-3-3-3-3-3-3---------------------------------------------|
D|---------------------------------------------------------------------------|

Look at you kid, you're so cool. Wanna be you, I wanna find your soul
e|---------------------------------------------------------------------------|
B|---------------------------------------------------------------------------|
G|---------------------------------------------------------------------------| 
D|-5-5-5-5-5-5-5-5-5-5-5--5--5--5-5-5-5-5------------------------------------|
A|-5-5-7-5-5-5-7-5-5-5-10-10-10-5-9-5-7-5------------------------------------|
D|-5-5-5-5-5-5-5-5-5-5-5--5--5--5-5-5-5-5------------------------------------|
                                                                               x2
e|---------------------------------------------------------------------------|
B|---------------------------------------------------------------------------|
G|---------------------------------------------------------------------------| 
D|-5-5-5-5-5-5-5-5-5-5-5-5-5-5-5-5-------------------------------------------|
A|-5-5-5-5-5-5-5-5-5-5-5-5-5-5-5-5-------------------------------------------|
D|-5-5-5-5-5-5-5-5-5-5-5-5-5-5-5-5-------------------------------------------|

but I feel like a dumb machine. Throwing punches strapped to a chair I can't leave. 
e|---------------------------------------------------------------------------|
B|---------------------------------------------------------------------------|
G|---------------------------------------------------------------------------| 
D|-10-10-10-10-10-10-10-10-10-10-10-10-10-10---------------------------------|
A|-10-10-12-10-10-10-12-10-10-10-12-14-10-12---------------------------------|
D|-10-10-10-10-10-10-10-10-10-10-10-10-10-10---------------------------------|
                                                                               x2
e|---------------------------------------------------------------------------|
B|---------------------------------------------------------------------------|
G|-5-5-5-5-5-5-5-5-5-5-5-5-5-5-5---------------------------------------------| 
D|-5-5-5-5-5-5-5-5-5-5-5-5-5-5-5---------------------------------------------|
A|-3-3-3-3-3-3-3-3-3-3-3-3-3-3-3---------------------------------------------|
D|---------------------------------------------------------------------------|


[Chorus]

The hours in your heart won't keep you warm, I wish, I wish, I wish, I'd never learn. 
e|---------------------------------------------------------------------------|
B|---------------------------------------------------------------------------|
G|---------------------------------------------------------------------------| x4
D|-5-5-5-5-5-5-5-0-0-0-0-0-0-0-10-10-10-10-10-10-10-10-10-10-10-10-10--------|
A|-5-5-5-5-5-5-5-0-0-0-0-0-0-0-10-10-12-10-10-10-15-15-15-12-14-10-12--------|
D|-5-5-5-5-5-5-5-0-0-0-0-0-0-0-10-10-10-10-10-10-10-10-10-10-10-10-10--------|


[Verse]

While the country turns to flames, you sit laughing drooling for fame
e|---------------------------------------------------------------------------|
B|---------------------------------------------------------------------------|
G|---------------------------------------------------------------------------| 
D|-5-5-5-5-5-5-5-5-5-5-5--5--5--5-5-5-5-5------------------------------------|
A|-5-5-7-5-5-5-7-5-5-5-10-10-10-5-9-5-7-5------------------------------------|
D|-5-5-5-5-5-5-5-5-5-5-5--5--5--5-5-5-5-5------------------------------------|
                                                                               x2
e|---------------------------------------------------------------------------|
B|---------------------------------------------------------------------------|
G|---------------------------------------------------------------------------| 
D|-5-5-5-5-5-5-5-5-5-5-5-5-5-5-5-5-------------------------------------------|
A|-5-5-5-5-5-5-5-5-5-5-5-5-5-5-5-5-------------------------------------------|
D|-5-5-5-5-5-5-5-5-5-5-5-5-5-5-5-5-------------------------------------------|

As the country sits here and burns, walk beside me dead. Admire the world
e|---------------------------------------------------------------------------|
B|---------------------------------------------------------------------------|
G|---------------------------------------------------------------------------| 
D|-10-10-10-10-10-10-10-10-10-10-10-10-10-10---------------------------------|
A|-10-10-12-10-10-10-12-10-10-10-12-14-10-12---------------------------------|
D|-10-10-10-10-10-10-10-10-10-10-10-10-10-10---------------------------------|
                                                                               x2
e|---------------------------------------------------------------------------|
B|---------------------------------------------------------------------------|
G|-5-5-5-5-5-5-5-5-5-5-5-5-5-5-5---------------------------------------------| 
D|-5-5-5-5-5-5-5-5-5-5-5-5-5-5-5---------------------------------------------|
A|-3-3-3-3-3-3-3-3-3-3-3-3-3-3-3---------------------------------------------|
D|---------------------------------------------------------------------------|

And I wont join your game, think you're stupid you only look straight
e|---------------------------------------------------------------------------|
B|---------------------------------------------------------------------------|
G|---------------------------------------------------------------------------| 
D|-5-5-5-5-5-5-5-5-5-5-5--5--5--5-5-5-5-5------------------------------------|
A|-5-5-7-5-5-5-7-5-5-5-10-10-10-5-9-5-7-5------------------------------------|
D|-5-5-5-5-5-5-5-5-5-5-5--5--5--5-5-5-5-5------------------------------------|
                                                                               x2
e|---------------------------------------------------------------------------|
B|---------------------------------------------------------------------------|
G|---------------------------------------------------------------------------| 
D|-5-5-5-5-5-5-5-5-5-5-5-5-5-5-5-5-------------------------------------------|
A|-5-5-5-5-5-5-5-5-5-5-5-5-5-5-5-5-------------------------------------------|
D|-5-5-5-5-5-5-5-5-5-5-5-5-5-5-5-5-------------------------------------------|

 And the feeling it won't go, just wanna get out, out of my soul. 
e|---------------------------------------------------------------------------|
B|---------------------------------------------------------------------------|
G|---------------------------------------------------------------------------| 
D|-10-10-10-10-10-10-10-10-10-10-10-10-10-10---------------------------------|
A|-10-10-12-10-10-10-12-10-10-10-12-14-10-12---------------------------------|
D|-10-10-10-10-10-10-10-10-10-10-10-10-10-10---------------------------------|
                                                                               x2
e|---------------------------------------------------------------------------|
B|---------------------------------------------------------------------------|
G|-5-5-5-5-5-5-5-5-5-5-5-5-5-5-5---------------------------------------------| 
D|-5-5-5-5-5-5-5-5-5-5-5-5-5-5-5---------------------------------------------|
A|-3-3-3-3-3-3-3-3-3-3-3-3-3-3-3---------------------------------------------|
D|---------------------------------------------------------------------------|


[Chorus]

The hours in your heart won't keep you warm, I wish, I wish, I wish, I'd never learn. 
e|---------------------------------------------------------------------------|
B|---------------------------------------------------------------------------|
G|---------------------------------------------------------------------------| x2
D|-5-5-5-5-5-5-5-0-0-0-0-0-0-0-10-10-10-10-10-10-10-10-10-10-10-10-10--------|
A|-5-5-5-5-5-5-5-0-0-0-0-0-0-0-10-10-12-10-10-10-15-15-15-12-14-10-12--------|
D|-5-5-5-5-5-5-5-0-0-0-0-0-0-0-10-10-10-10-10-10-10-10-10-10-10-10-10--------|


[Breakdown]

On your head you roll
e|---------------------------------------------------------------------------|
B|---------------------------------------------------------------------------|
G|---------------------------------------------------------------------------| x6
D|-0-0-0-0-3-2-0-5-5-5-3-3---------------------------------------------------|
A|-0-0-0-0-3-2-0-5-5-5-3-3---------------------------------------------------|
D|-0-0-0-0-3-2-0-5-5-5-3-3---------------------------------------------------|


[Chorus]

The hours in your heart won't keep you warm, I wish, I wish I'd never learn. No, no...
e|---------------------------------------------------------------------------|
B|---------------------------------------------------------------------------|
G|---------------------------------------------------------------------------| x5
D|-5-5-5-5-5-5-5-0-0-0-0-0-0-0-10-10-10-10-10-10-10-10-10-10-10-10-10--------|
A|-5-5-5-5-5-5-5-0-0-0-0-0-0-0-10-10-12-10-10-10-15-15-15-12-14-10-12--------|
D|-5-5-5-5-5-5-5-0-0-0-0-0-0-0-10-10-10-10-10-10-10-10-10-10-10-10-10--------|

[Outro]

e|---------------------------------------------------------------------------|
B|---------------------------------------------------------------------------|
G|-17--16--14---17--16--14--12-----------------------------------------------| x1
D|---------------------------------------------------------------------------|
A|-15--14--12---15--14--12--10-----------------------------------------------|
D|---------------------------------------------------------------------------|

e|---------------------------------------------------------------------------|
B|---------------------------------------------------------------------------|
G|---------------------------------------------------------------------------| x1
D|-5-5-5-5-5-5-5-0-0-0-0-0-0-0-10-10-10-10-10-10-10-10-10-10-10-10-10--------|
A|-5-5-5-5-5-5-5-0-0-0-0-0-0-0-10-10-12-10-10-10-15-15-15-12-14-10-12--------|
D|-5-5-5-5-5-5-5-0-0-0-0-0-0-0-10-10-10-10-10-10-10-10-10-10-10-10-10--------|
Добавлено: 17.10.2017
Другие материалы по этой песне:
  • Аккорды и текст

Страница создана 17.10.2017
http://primanota.ru/violent-soho/dumb-machine-chords.htm
Привет, Гость.
Предлагаем пройти революционный курс по гитаре.
Подарок от PrimaNota.Ru, забирай!