PrimaNota.ru - самый крупный в мире бесплатный архив песенных текстов, аккордов, табулатур и нот


Violent Soho - Saramona Said - таба, видео

Регистрация Запомнить меня
Войти через:  Facebook Google Twitter Vk Yandex Mail.ru

Violent Soho - Saramona Said - таба, видео

Печатать
Просмотров: 191
Violent Soho | Saramona Said
Hungry Ghost | 2013
Tabbed by Andrew709 (andrew709@live.com.au)
Epic track, did my best with the tab, please rate/comment let me kno any corrections!

|| Intro ||

Guitar 1
e | -----------------------------------------------------------------------------------------|
B | ---------------------------1-------------------------------------------------------------|
G | -----------2-----------------2---2---------2---------------------------------------------|
D | -----0---0---0---0---0---0-----0-----0---0-----0h3-0h3-0h3-------------------------------|  x 2
A | ---1---1-------1---1---1-----------0---0-------------------------------------------------|
D | -----------------------------------------------------------------------------------------|

e | -----------------------------------------------------------------------------------------|
B | -----------------------------------------------------------------------------------------|
G | -----------2-----------------------------------------------------------------------------|
D | -----0---0---0h3-0h3-0-0h3---------------------------------------------------------------|  x 4
A | ---1---1---------------------------------------------------------------------------------|
D | -----------------------------------------------------------------------------------------|

Then…

Guitar 1
e | --------15----------15-------------------------------------------------------------------|
B | ---15-15--15-18---15--15-18-18--18--18--18--18--18-161616-15-----------------------------|
G | -------------------------15---15--15--15--15--15---151515-15-----------------------------|
D | -----------------------------------------------------------------------------------------|
A | -----------------------------------------------------------------------------------------|
D | -----------------------------------------------------------------------------------------|

Guitar 2
e | -----------------------------------------------------------------------------------------|
B | -----------------------------------------------------------------------------------------|
G | -----------------------------------------------------------------------------------------|
D | ---8-------5-------13--------------------------------------------------------------------| 
A | ---8-x32---5-x12---13-x3-----------------------------------------------------------------|
D | ---8-------5-------13--------------------------------------------------------------------|

|| Verse ||

e | -----------------------------------------------------------------------------------------|
B | -----------------------------------------------------------------------------------------|
G | -----------------------------------------------------------------------------------------|
D | ---8-------5-------13--------------------------------------------------------------------|  x 2
A | ---8-x32---5-x12---13-x3-----------------------------------------------------------------|
D | ---8-------5-------13--------------------------------------------------------------------|

|| Chorus ||

Guitar 1
e | -----------------------------------------------------------------------------------------|
B | -----------------------------------------------------------------------------------------|
G | ----10-12-10-10-10-12-10-10-10-12-10-10--14--14--15--15----------------------------------|
D | ---8--8--8--8--8--8--8--8--8--8--8--8--12--12--12--12------------------------------------|  x 2
A | -----------------------------------------------------------------------------------------|
D | -----------------------------------------------------------------------------------------|


Guitar 2
e | -----------------------------------------------------------------------------------------|
B | -----------------------------------------------------------------------------------------|
G | -----------------------------------------------------------------------------------------|
D | ---888--333--555--000--111--888--121212--131313------------------------------------------|  x 2
A | ---888--333--555--000--111--888--121212--131313------------------------------------------|
D | ---888--333--555--000--111--888--121212--131313------------------------------------------|

|| Post-Chorus I ||

Guitar 1
e | -----------------------------------------------------------------------------------------|
B | -----------------------------------------------------------------------------------------|
G | -----------7---7-------------------------------------------------------------------------|
D | ---78787878-878-878----------------------------------------------------------------------|
A | -----------------------------------------------------------------------------------------|
D | -----------------------------------------------------------------------------------------|

Guitar 2
e | -----------------------------------------------------------------------------------------|
B | -----------------------------------------------------------------------------------------|
G | -----------------------------------------------------------------------------------------|
D | ---8-------5-------13--------------------------------------------------------------------|
A | ---8-x32---5-x12---13-x3-----------------------------------------------------------------|
D | ---8-------5-------13--------------------------------------------------------------------|

Verse

Chorus

|| Post-Chorus II ||

Guitar 1
e | ---------15------------15------------------------------------15--------------------------|
B | ---15-15----15-18---15----15-18-15-18-15-16-15-16---15-15-15----15-18-15-15-15-----------|
G | -----------------------------------------------------------------------------------------|
D | -----------------------------------------------------------------------------------------|
A | -----------------------------------------------------------------------------------------|
D | -----------------------------------------------------------------------------------------|

Guitar 1
e | ---15----------------15----------------15------------------------------------------------|
B | ------15-18-15-15-15----15-18-15-15-15----15-18-15---16-x64------------------------------|
G | -----------------------------------------------------------------------------------------|
D | -----------------------------------------------------------------------------------------|
A | -----------------------------------------------------------------------------------------|
D | -----------------------------------------------------------------------------------------|

Guitar 1
e | ------------15------------20-x64---------------------------------------------------------|
B | ---15-15-15----15-18—x8------------------------------------------------------------------|
G | -----------------------------------------------------------------------------------------|
D | -----------------------------------------------------------------------------------------|
A | -----------------------------------------------------------------------------------------|
D | -----------------------------------------------------------------------------------------|

Guitar 2
e | -----------------------------------------------------------------------------------------|
B | -----------------------------------------------------------------------------------------|
G | -----------------------------------------------------------------------------------------|
D | --13-------5------8------1-------5------8------------------------------------------------|  x 4
A | --13-x16---5-x8---8-x8---1-x16---5-x8---8-x8---------------------------------------------|
D | --13-------5------8------1-------5------8------------------------------------------------|

Drums…

|| Ending ||

Guitar 1
e | -----------------------------------------------------------------------------------------|
B | ---10b/----------------------------------------------------------------------------------|
G | -----------------------------------------------------------------------------------------|
D | -----------------------------------------------------------------------------------------|  x 4
A | -----------------------------------------------------------------------------------------|
D | -----------------------------------------------------------------------------------------|

Guitar 2
e | -----------------------------------------------------------------------------------------|
B | -----------------------------------------------------------------------------------------|
G | -----------------------------------------------------------------------------------------|
D | ---8---3---5---0---1---8---12---13-------------------------------------------------------|  x 4
A | ---8---3---5---0---1---8---12---13-------------------------------------------------------|
D | ---8---3---5---0---1---8---12---13-------------------------------------------------------|







Добавлено: 11.07.2014
Другие материалы по этой песне:

Страница создана 05.05.2014
http://primanota.ru/violent-soho/saramona-said-chords.htm
Привет, Гость.
Предлагаем пройти революционный курс по гитаре.
Подарок от PrimaNota.Ru, забирай!