PrimaNota.ru - самый крупный в мире бесплатный архив песенных текстов, аккордов, табулатур и нот


Violent Soho - Holy Cave - таба, видео

Регистрация Запомнить меня
Войти через:  Facebook Google Twitter Vk Yandex Mail.ru

Violent Soho - Holy Cave - таба, видео

Печатать
Просмотров: 51
Уроки эстрадного вокала в Санкт-Петербурге
[Intro]

eb|------------|------------|------------|----------|
Bb|------------|------------|------------|----------|
Gb|------------|------------|------------|----------|
Db|-11-11--11b-|-11-11--11b-|-11-11--11b-|-11-11-11-| x6
Ab|-0--0---0---|-0--0---0---|-0--0---0---|-9--9--9--|
Db|-0--0---0---|-0--0---0---|-0--0---0---|-9--9--9--|

[Verse]

eb|-----------------|-----------------|-------------------|-----------------|
Bb|-----------------|-----------------|-------------------|-----------------|
Gb|-----------------|-----------------|-------------------|-----------------|
Db|-----------------|-----------------|-------------------|-----------------| x3
Ab|-----------------|-----------------|-------------------|-----------------|
Db|-0-0-0-0-0-0-0-0-|-5-5-5-5-5-5-5-5-|-9-9-9-9-9-9-9-9-9-|-5-5-5-5-5-5-5-5-|

eb|-----------------|-----------------|------------------|-----------------|
Bb|-----------------|-----------------|------------------|-----------------|
Gb|-----------------|-----------------|------------------|-----------------|
Db|-----------------|-----------------|------------------|-----------------| x1
Ab|-----------------|-----------------|------------------|-----------------|
Db|-0-0-0-0-0-0-0-0-|-5-5-5-5-5-5-5-5-|-9-9-9-9-9-9-9-9--|-5---------------|

[Chorus]

eb|------------|------------|------------|----------|
Bb|------------|------------|------------|----------|
Gb|------------|------------|------------|----------| 
Db|-11-11--11b-|-11-11--11b-|-11-11--11b-|-11-11-11-| x4
Ab|-0--0---0---|-0--0---0---|-0--0---0---|-9--9--9--|
Db|-0--0---0---|-0--0---0---|-0--0---0---|-9--9--9--|

[Verse]

eb|-----------------|-----------------|-------------------|-----------------|
Bb|-----------------|-----------------|-------------------|-----------------|
Gb|-----------------|-----------------|-------------------|-----------------|
Db|-----------------|-----------------|-------------------|-----------------| x3
Ab|-----------------|-----------------|-------------------|-----------------|
Db|-0-0-0-0-0-0-0-0-|-5-5-5-5-5-5-5-5-|-9-9-9-9-9-9-9-9-9-|-5-5-5-5-5-5-5-5-|

eb|-----------------|-----------------|------------------|-----------------|
Bb|-----------------|-----------------|------------------|-----------------|
Gb|-----------------|-----------------|------------------|-----------------|
Db|-----------------|-----------------|------------------|-----------------| x1
Ab|-----------------|-----------------|------------------|-----------------|
Db|-0-0-0-0-0-0-0-0-|-5-5-5-5-5-5-5-5-|-9-9-9-9-9-9-9-9--|-5---------------|



[Chorus]

eb|------------|------------|------------|----------|
Bb|------------|------------|------------|----------|
Gb|------------|------------|------------|----------|
Db|-11-11--11b-|-11-11--11b-|-11-11--11b-|-11-11-11-| x4
Ab|-0--0---0---|-0--0---0---|-0--0---0---|-9--9--9--|
Db|-0--0---0---|-0--0---0---|-0--0---0---|-9--9--9--|

[Bridge]

eb|-----------------|-----------------|-----------------|-------------------------|
Bb|-----------------|-----------------|-----------------|-------------------------|
Gb|-----------------|-----------------|-----------------|-------------------------|
Db|-5-5-5-5-5-5-5-5-|-0-0-0-0-0-0-0-0-|-9-9-9-9-9-9-9-9-|-12-12-12-12-12-12-12-12-| x3
Ab|-5-5-5-5-5-5-5-5-|-0-0-0-0-0-0-0-0-|-9-9-9-9-9-9-9-9-|-12-12-12-12-12-12-12-12-| 
Db|-5-5-5-5-5-5-5-5-|-0-0-0-0-0-0-0-0-|-9-9-9-9-9-9-9-9-|-12-12-12-12-12-12-12-12-| 

eb|-----------------|------------------|-----------------|--------------------------|
Bb|-----------------|------------------|-----------------|--------------------------|
Gb|-----------------|------------------|-----------------|--------------------------|
Db|-5-5-5-5-5-5-5-5-|-0----------------|-9-9-9-9-9-9-9-9-|-12-----------------------| x2
Ab|-5-5-5-5-5-5-5-5-|-0----------------|-9-9-9-9-9-9-9-9-|-12-----------------------| 
Db|-5-5-5-5-5-5-5-5-|-0----------------|-9-9-9-9-9-9-9-9-|-12-----------------------|

eb|-----------------------------------------------------------------------|
Bb|-----------------------------------------------------------------------|
Gb|-----------------------------------------------------------------------|
Db|-5-5-5-5-5-5-5-5-|-5-5-5-5-5-5-5-5-|-0-0-0-0-0-0-0-0-|-2-2-2-2-2-2-2-2-| x4
Ab|-5-5-5-5-5-5-5-5-|-5-5-5-5-5-5-5-5-|-0-0-0-0-0-0-0-0-|-2-2-2-2-2-2-2-2-|
Db|-5-5-5-5-5-5-5-5-|-5-5-5-5-5-5-5-5-|-0-0-0-0-0-0-0-0-|-2-2-2-2-2-2-2-2-| 


[Chorus]

eb|------------|------------|------------|----------|------------|------------|------------|----------|
Bb|------------|------------|------------|----------|------------|------------|------------|----------|
Gb|------------|------------|------------|----------|------------|------------|------------|----------|
Db|-11-11--11b-|-11-11--11b-|-11-11--11b-|-11-11-11-|-11-11--11b-|-11-11--11b-|-11-11--11b-|-11-------| 
Ab|-0--0---0---|-0--0---0---|-0--0---0---|-9--9--9--|-0--0---0---|-0--0---0---|-0--0---0---|-9--------|
Db|-0--0---0---|-0--0---0---|-0--0---0---|-9--9--9--|-0--0---0---|-0--0---0---|-0--0---0---|-9--------|

eb|------------|------------|------------|----------|
Bb|------------|------------|------------|----------|
Gb|------------|------------|------------|----------| 
Db|-11-11--11b-|-11-11--11b-|-11-11--11b-|-11-11-11-| x4
Ab|-0--0---0---|-0--0---0---|-0--0---0---|-9--9--9--|
Db|-0--0---0---|-0--0---0---|-0--0---0---|-9--9--9--|


***********************************
| b   Bend
***********************************

Добавлено: 17.10.2017
Другие материалы по этой песне:
  • Аккорды и текст

Страница создана 17.10.2017
http://primanota.ru/violent-soho/holy-cave-chords.htm
Привет, Гость.
Предлагаем пройти революционный курс по гитаре.
Подарок от PrimaNota.Ru, забирай!