PrimaNota.ru - самый крупный в мире бесплатный архив песенных текстов, аккордов, табулатур и нот


Venom - Leave Me In Hell - текст песни, таба, видео

Регистрация Запомнить меня
Войти через:  Facebook Google Twitter Vk Yandex Mail.ru

Venom - Leave Me In Hell - текст песни, таба, видео

Печатать
Просмотров: 76
Авторы: Abaddon, Cronos, Mantas

Venom - Leave Me In Hell

Mail: degot88@gmail.com

Tuning:
C#5
G#4
E4
B3
F#3
C#3

Legend:
h - hammer on
p - pull off
x - palm muting
\ - slide
~ - vibrato

Start with
(Riff 1)
||---------------------------------------------------------------|
||---------------------------------------------------------------|
||------7-----5-----7-----4---4h5--------------------------------|
||------7-----5-----7-----5---5-5--------------------------------|
||--0x0x--0x0x--0x0x--0x0x--0x-----------------------------------|
||---------------------------------------------------------------| x4

Main Riff
(Riff 2)
||---------------------------------------------------------------|
||---------------------------------------------------------------|
||------7-----5-----7-----4--4h5p4-------------------------------|
||------7-----5-----7-----5--5-5-5-------------------------------|
||----0-----0-----0-----0----------------------------------------|
||---------------------------------------------------------------|

(Riff 3)
||---------------------------------------------------------------|
||---------------------------------------------------------------|
||---------------------------------------------------------------|
||--7\5--7\55---7\5--7\55----------------------------------------|
||--5\3--5\33---5\3--5\33----------------------------------------|
||---------------------------------------------------------------| x2

(Riff 4)
||---------------------------------------------------------------|
||---------------------------------------------------------------|
||---------------------------------------------------------------|
||---------------------------------------------------------------|
||--------------777777777777777----------------------------------|
||--8~7~8~7~8~7~555555555555555---8~7~8~7~8~7~-------------------|

||---------------------------------------------------------------|
||---------------------------------------------------------------|
||---------------------------------------------------------------|
||----9\77---------7\9\7-----------------------------------------|
||----7\55---------5\7\5-----------------------------------------|
||--0------0x0x0x0x----------------------------------------------| x4

Before solo
(Riff 5)
||---------------------------------------------------------------|
||---------------------------------------------------------------|
||------9--------------9-----------------------------------------|
||--------9--7~----------9--7~-----9-9-9--7~-----9-9-9--7~-------|
||----7------5~------7------5~-----7-7-7--5~-----7-7-7--5~-------|
||--0--------------0---------------------------------------------|

||---------------------------------------------------------------|
||----------------------------------------7~-----------7~--------|
||----------------------------------------7~-----------7~--------|
||----------7~-------------7~------------------------------------|
||--7\9999--5~-----7\9999--5~-----7\9999---------7\9999----------|
||--5\7777---------5\7777---------5\7777---------5\7777----------|

(Riff 6)
||---------------------------------------------------------------|
||---------------------------------------------------------------|
||---------------------------------------------------------------|
||--------7\99---77----------------------------------------------|
||--------7\99---55----------------------------------------------|
||--0x0x0x-------------------------------------------------------|

(Riff 7)
||---------------------------------------------------------------|
||---------------------------------------------------------------|
||---------------------------------------------------------------|
||--------10\12-12---77------------------------------------------|
||--------8-\10-10---55------------------------------------------|
||--0x0x0x-------------------------------------------------------|

(Riff 8)
||---------------------------------------------------------------|
||---------------------------------------------------------------|
||---------------------------------------------------------------|
||--------7\99---------------------------------------------------|
||--------5\77---9\----------------------------------------------|
||--0x0x0x-------7\----------------------------------------------|

Ending riff
||---------------------------------------------------------------|
||---------------------------------------------------------------|
||---------------------------------------------------------------|
||----4-2--------------------------------------------------------|
||--3~2-0---5-22-------------------------------------------------|
||----------3~00-------------------------------------------------|

Order:
Riff 1

Riff 2 x8
Riff 3
Riff 2 x2
Riff 4
Riff 5

Riff 2 x8
Riff 3
Riff 2 x2
Riff 4
Riff 5

Riff 5
(Solo skipped sry)

Riff 2 x2
Riff 6 x2
Riff 2 x2
Riff 7 x2
Riff 2 x2
Riff 8 x2

Riff 2 x2
Riff 4
Riff 2
Ending riff
Добавлено: 12.06.2016
Вам также может быть интересно:
Другие материалы по этой песне:
  • Аккорды и текст

Страница создана 18.09.2013
http://primanota.ru/venom/leave-me-in-hell-chords.htm
Привет, Гость.
Предлагаем пройти революционный курс по гитаре.
Подарок от PrimaNota.Ru, забирай!