PrimaNota.ru - самый крупный в мире бесплатный архив песенных текстов, аккордов, табулатур и нот


Venom - Sin - текст песни, таба, видео

Регистрация Запомнить меня
Войти через:  Facebook Google Twitter Vk Yandex Mail.ru

Venom - Sin - текст песни, таба, видео

Печатать
Просмотров: 71
Venom - Poison

Mail: degot88@gmail.com

Tuning:
C#5
G#4
E4
B3
F#3
C#3

Legend:
\ - slide
(p.m) - palm mute

Start with
(Riff 1)
||----------------------------------------------------------------|
||------(palm mute the mid ones)----------------------------------|
||----------------------------------------------------------------|
||--2--4----4----4----4----4--2--2----2----2----2----2------------|
||---3-222222222222222222222---3-000000000000000000000------------|
||----------------------------------------------------------------| x4

(Riff 2)
||----------------------------------------------------------------|
||----------------------------------------------------------------|
||----------------------------------------------------------------|
||--4---2-5---------------4---2-5---------------------------------|
||--2---0-3----5-----7----2---0-3----5-----777--------------------|
||-------------3---0-5---------------3---0-555--------------------|

(Riff 3)
||-----------------------------|    |-----------------------------|
||-----------------------------|    |-----------------------------|
||-----------------------------|    |-----------------------------|
||-----------------------------|    |-----------------------------|
||--(keep p.m)-----------------|    |--(keep p.m)-----------------|
||--0-0-0-0-3-0-0-0-0-3-0-0-3--| x2 |--1-1-1-1-4-1-1-1-1-4-1-1-4--| x2

(Riff 4)
||----------------------------------------------------------------|
||----------------------------------------------------------------|
||----------------------------------------------------------------|
||--99-7\9-10-9-(p.m)----------99-7\9-10-12-(p.m)-----------------|
||--77-5\7-8--7-22222----------77-5\7-8--10-22222-----------------|
||--------------00000-----------------------00000-----------------| x2

Chorus
(Riff 5)
||----------------------------------------------------------------|
||----------------------------------------------------------------|
||----------------------------------------------------------------|
||--------2---4---------2---4-7-------2---4---------2---4-7-------|
||--2----2--3-2-5-2----2--3-2-5-2----2--3-2-5-2----2--3-2-5-222---|
||--0---0-------3-0---0---------0---0-------3-0---0---------000\--|

Before solo
(Riff 6)
||-------------------------------------------------------------------------------------|
||-------------------------------------------------------------------------------------|
||-------------------------------------------------------------------------------------|
||---------------------4---5-4----------------------------4---5-4---------(keep p.m)---|
||--2---5--4-5-7---5-7-2---3-2-4---7-5-2---5--4-5-7---5-7-2---3-2-4---7-5-2222222------|
||--0---3--2-3-5---3-5---------2---5-3-0---3--2-3-5---3-5---------2---5-3-0000000...---|


Order:
Riff 1
Riff 2
Riff 3 x4
Riff 4
Riff 5

Riff 3 x4
Riff 4
Riff 5

Riff 6
(Solo skipped sry)
Riff 2

Riff 3 x4
Riif 4
Riff 5 x2
Добавлено: 12.06.2016
Другие материалы по этой песне:
  • Аккорды и текст

Страница создана 30.12.2013
http://primanota.ru/venom/sin-chords.htm
Привет, Гость.
Предлагаем пройти революционный курс по гитаре.
Подарок от PrimaNota.Ru, забирай!