PrimaNota.ru - самый крупный в мире бесплатный архив песенных текстов, аккордов, табулатур и нот


Ufo - Too Hot To Handle Live - бас-таба, видео

Регистрация Запомнить меня
Войти через:  Facebook Google Twitter Vk Yandex Mail.ru

Ufo - Too Hot To Handle Live - бас-таба, видео

Печатать
Просмотров: 32
-------------------------------------------------------------------------------
                             Too Hot To Handle Live - UFO
-------------------------------------------------------------------------------
Tabbed by: David Etheridge
E-mail: david_l_etheridge@yahoo.com

This is the live version from "Strangers In The Night" album

Tuning: Standard

Bass enters at first Verse

Verse 1
G||------r-|------r-|--------|------r-|------r-|------r-|--------|------r-||
D||------e-|------e-|-----5--|------e-|------e-|------e-|-----5--|------e-||
A||-7-7--s-|------s-|-5-5--5-|7-----s-|-7-7--s-|------s-|-5-5--5-|7-----s-||
E||------t-|-5-5--t-|-------0|------t-|------t-|-5-5--t-|-------0|------t-||
                                                                        
Chorus
G||-------------|-------------|-------------|-------------|
D||-------------|-------------|-------------|-------------|
A||7--7--7-5-7-5|-------------|-------------|7--7--7-5-7-5|
E||-------------|5--5--5-3-5-3|5--5--5-3-5-3|-------------|

G|-------------|-------------|-------------|-------------||
D|-------------|-------------|-------------|-------------||
A|7--7--7-5-7-5|-------------|-------------|7------------||
E|-------------|5--5--5-3-5-3|5--5--5-3-5-3|-------------||

Verse 2
G||------r-|------r-|--------|------r-|------r-|------r-|--------|------r-||
D||------e-|------e-|-----5--|------e-|------e-|------e-|-----5--|------e-||
A||-7-7--s-|------s-|-5-5--5-|7-----s-|-7-7--s-|------s-|-5-5--5-|7-----s-||
E||------t-|-5-5--t-|-------0|------t-|------t-|-5-5--t-|-------0|------t-||

Chorus
G||-------------|-------------|-------------|-------------|
D||-------------|-------------|-------------|-------------|
A||7--7--7-5-7-5|-------------|-------------|7--7--7-5-7-5|
E||-------------|5--5--5-3-5-3|5--5--5-3-5-3|-------------|

G|-------------|-------------|-------------|-------------||
D|-------------|-------------|-------------|-------------||
A|7--7--7-5-7-5|-------------|-------------|7------------||
E|-------------|5--5--5-3-5-3|5--5--5-3-5-3|-------------||

Refrain
G||-----------|-------------|-----------|----------|-----------|-------------|-----------|----------||
D||-----------|-------------|-----------|----------|-----------|-------------|-----------|----------||
A||-----------|5-5--5-------|-----------|----------|-----------|5-5--5-------|-----------|----------||
E||7-7-7-7--5-|-------5-5-5-|7-7-7-7--5-|3-3--5----|7-7-7-7--5-|---------5-5-|3----------|5---------||

Solo X8
G||---------------|---------------||
D||---------------|---------------||
A||---------------|------------7--||
E||7-7-7-7-7-7-7-7|7-7-7-7--5-----||

Refrain X2
G||-----------|-------------|-----------|----------|-----------|-------------|-----------|----------||
D||-----------|-------------|-----------|----------|-----------|-------------|-----------|----------||
A||-----------|5-5--5-------|-----------|----------|-----------|5-5--5-------|-----------|----------||
E||7-7-7-7--5-|-------5-5-5-|7-7-7-7--5-|3-3--5----|7-7-7-7--5-|---------5-5-|3----------|5---------||

Fill
G||---7h9-7h9-7h9-7h9------7h9|7h9---7h9-7h9------------||
D||---------------------------|-------------------------||
A||---------------------------|-------------------------||
E||---------------------------|-------------------------||

Verse 3
G||------r-|------r-|--------|------r-|------r-|------r-|--------|------r-||
D||------e-|------e-|-----5--|------e-|------e-|------e-|-----5--|------e-||
A||-7-7--s-|------s-|-5-5--5-|7-----s-|-7-7--s-|------s-|-5-5--5-|7-----s-||
E||------t-|-5-5--t-|-------0|------t-|------t-|-5-5--t-|-------0|------t-||

Chorus X6
G||-------------|-------------|-------------|-------------|
D||-------------|-------------|-------------|-------------|
A||7--7--7-5-7-5|-------------|-------------|7--7--7-5-7-5|
E||-------------|5--5--5-3-5-3|5--5--5-3-5-3|-------------|
                                               Ends 1,2,4        Ends 3,5
G|-------------|-------------|-------------| ||-------------|| ||-------------||
D|-------------|-------------|-------------| ||--6-7-9-7----|| ||-------------||
A|7--7--7-5-7-5|-------------|-------------| ||-7----------9|| ||7--7--7-5-7-5||
E|-------------|5--5--5-3-5-3|5--5--5-3-5-3| ||-------------|| ||-------------||

   End 6
G||------------|------------|12----------|12----------|12----------|------------||
D||-----------/|-14---12-h14|--h14-12-h14|--h14-12-h14|--h14-12-h14|------------||
A||7-----------|------------|------------|------------|------------|------------||
E||------------|------------|------------|------------|------------|0-----------||



| /  slide up
| \  slide down
| h  hammer-on
| p  pull-off
| ~  vibrato
| +  harmonic
| x  Mute note
===============================================================================
Добавлено: 15.11.2015
Другие материалы по этой песне:
  • Аккорды и текст

Страница создана 15.11.2015
http://primanota.ru/ufo/too-hot-to-handle-live-chords.htm
Привет, Гость.
Предлагаем пройти революционный курс по гитаре.
Подарок от PrimaNota.Ru, забирай!