PrimaNota.ru - самый крупный в мире бесплатный архив песенных текстов, аккордов, табулатур и нот


Ufo - Im A Loser Live - бас-таба, видео

Регистрация Запомнить меня
Войти через:  Facebook Google Twitter Vk Yandex Mail.ru

Ufo - Im A Loser Live - бас-таба, видео

Печатать
Просмотров: 32
-------------------------------------------------------------------------------
                             I'm A Loser Live - UFO
-------------------------------------------------------------------------------
Tabbed by: David Etheridge
E-mail: david_l_etheridge@yahoo.com

This is the live version from "Strangers In The Night" album

Tuning: Standard

Bass comes in 5th measure

Intro X2   Verse1 X4         Refrain
G||----------------------|| ||-------------------------------------------||
D||----------------------|| ||-------------------------------------------||
A||12\----------------12\|| ||9--9-7--7-5--5---5---7--9--9-7--7-5--5-5--4||
E||---5---5--5/10--10----|| ||-------------------------------------------||

Pre Chorus
G||---------------------------------||
D||4-2------0-------4-2-----0-------||
A||-----------4-2-------------4-2--4||
E||---------------------------------||

Chorus Pt.1  X2         Pt.2    X2
G||--------|--------|| ||------------------|-----------------||
D||--------|--------|| ||------------------|-----------------||
A||--7-5---|--7-5--7|| ||--7--7-5---5-5-5-5|---7--7-5--5-5-7-||
E||5-------|5-------|| ||5-5---------------|5-5--------------||

G|------------------|-----------------|------------------|-----------------||
D|------------------|-----------------|------------------|-----------------||
A|---7--7-5--5-5-5-5|---7--7-5--5-5-7-|--7--7-5---5-5-5-5|---7--7-5--5-5-7-||
E|5-5---------------|5-5--------------|5-5---------------|5-5--------------||  

Intro X2   Verse2       X4         Refrain
G||----------------------|| ||-------------------------------------------||
D||----------------------|| ||-------------------------------------------||
A||12\----------------12\|| ||9--9-7--7-5--5---5---7--9--9-7--7-5--5-5--4||
E||---5---5--5/10--10----|| ||-------------------------------------------||

Chorus Pt.1  X2         Pt.2    X2
G||--------|--------|| ||------------------|-----------------||
D||--------|--------|| ||------------------|-----------------||
A||--7-5---|--7-5--7|| ||--7--7-5---5-5-5-5|---7--7-5--5-5-7-||
E||5-------|5-------|| ||5-5---------------|5-5--------------||

Solo X3                                    1 measure           Solo over Pre Chorus X2
G||--------------------------|| ||---------------|| ||---------------------------------||
D||---11------13-------------|| ||---------------|| ||4-2------0-------4-2-----0-------||
A||9-9-9/11-11-11----7-----9-|| ||---------------|| ||-----------4-2-------------4-2--4||
E||---------------5-5-5/7-7-7|| ||9-9-9-9-9-9-9-9|| ||---------------------------------||

Chorus Pt.2 with Solo X2
G|------------------|-----------------|------------------|-----------------||
D|------------------|-----------------|------------------|-----------------||
A|---7--7-5--5-5-5-5|---7--7-5--5-5-7-|--7--7-5---5-5-5-5|---7--7-5--5-5-7-||
E|5-5---------------|5-5--------------|5-5---------------|5-5--------------||  

Break
G||---------|---------|---------|---------||
D||---------|---------|---------|---------||
A||------5-7|------5-7|------5-7|------5-7||    
E||5--------|---------|5--------|---------||

Chorus Pt.2 with Solo
G|------------------|-----------------|------------------|-----------------||
D|------------------|-----------------|------------------|-----------------||
A|---7--7-5--5-5-5-5|---7--7-5--5-5-7-|--7--7-5---5-5-5-5|---7--7-5--5-5-7-||
E|5-5---------------|5-5--------------|5-5---------------|5-5--------------||  

Ending
G||---------|---------|---------||
D||---------|---------|---------||
A||------5-7|-----8-10|12-------||
E||5--------|---------|---------||



| /  slide up
| \  slide down
| h  hammer-on
| p  pull-off
| ~  vibrato
| +  harmonic
| x  Mute note
===============================================================================

Добавлено: 15.11.2015
Вам также может быть интересно:
Другие материалы по этой песне:
  • Аккорды и текст

Страница создана 15.11.2015
http://primanota.ru/ufo/im-a-loser-live-chords.htm
Привет, Гость.
Предлагаем пройти революционный курс по гитаре.
Подарок от PrimaNota.Ru, забирай!