PrimaNota.ru - самый крупный в мире бесплатный архив песенных текстов, аккордов, табулатур и нот


Ufo - Lipstick Traces - бас-таба, видео

Регистрация Запомнить меня
Войти через:  Facebook Google Twitter Vk Yandex Mail.ru

Ufo - Lipstick Traces - бас-таба, видео

Печатать
Просмотров: 71
-------------------------------------------------------------------------------
                             Lipstick Traces - UFO
-------------------------------------------------------------------------------
Tabbed by: David Etheridge
E-mail: david_l_etheridge@yahoo.com

Tuning: Standard

G|----------------2---2-----------------------------------------0----|
D|--------2---2-2--------2----7-5-------------------5---5---5----2-0-|
A|-3---3-2-----2----------0-------7-5---5----5---5-5-------5---------|
E|------3-----------------------------------5-----5------------------|

G|-------------------------------------------------------------------|
D|------------2-2-7---7-------7-5-------------------5---5-------5----|
A|-3---3-2-----2---------5--------7-5---5----5---5-5--------5----5---|
E|------3-0---------------5-----------------5-----5-----------3---3--|
                        
G|------------------------------------------------------------------------------|
D|---7----7-------------------------------------------------5-------------------|
A|-----7---7-7---7--7---7-7-3-------5-------7--7-7------5-------7-----------7-7-|
E|5-----5---5------7-----7------5-------3-------7--5----------------5---5--5---5|

G|----------------2---2-----------------------------------------0----|
D|--------2---2-2--------2----7-5-------------------5---5---5----2-0-|
A|-3---3-2-----2----------0-------7-5---5----5---5-5-------5---------|
E|------3-----------------------------------5-----5------------------|

G|-------------------------------------------------------------------|
D|------------2-2-7---7-------7-5-------------------5---5-------5----|
A|-3---3-2-----2---------5--------7-5---5----5---5-5--------5----5---|
E|------3-0---------------5-----------------5-----5-----------3---3--|
                        
G|------------------------------------------------------------------------------|
D|---7----7-------------------------------------------------5-------------------|
A|-----7---7-7---7--7---7-7-3-------5-------7--7-7------5-------7-----------7-7-|
E|5-----5---5------7-----7------5-------3-------7--5----------------5---5--5---5|

G|----------|
D|----------|
A|7-----7-7-|
E|--5--5---5|



| /  slide up
| \  slide down
| h  hammer-on
| p  pull-off
| ~  vibrato
| +  harmonic
| x  Mute note
===============================================================================
Добавлено: 15.11.2015
Другие материалы по этой песне:

Страница создана 29.04.2012
http://primanota.ru/ufo/lipstick-traces-chords.htm
Привет, Гость.
Предлагаем пройти революционный курс по гитаре.
Подарок от PrimaNota.Ru, забирай!