PrimaNota.ru - самый крупный в мире бесплатный архив песенных текстов, аккордов, табулатур и нот


Two Steps From Hell - Dragon Rider - таба, видео

Регистрация Запомнить меня
Войти через:  Facebook Google Twitter Vk Yandex Mail.ru

Two Steps From Hell - Dragon Rider - таба, видео

Печатать
Просмотров: 306
Авторы музыки: Thomas J. Bergersen

This is my 1st tab, so It CAN be wrong, but I think it's played like this.

From 0:11 to 0:23
e-------------------------------------------------|
B-------------------------------------------------|
G-------------------------------------------------|
D--5-5-5-5-5-5-5-5-5-5-5-5-5-5-5-5-5-5------------|
A--5-5-5-5-5-5-5-5-5-5-5-5-5-5-5-5-5-5------------|
E--3-3-3-3-3-3-3-3-3-3-3-3-3-3-3-3-3-3------------|

e-------------------------------------------------|
B-------------------------------------------------|
G-------------------------------------------------|
D--5-5-5-5-5-5-5-5-5-5-5-5-5-5-5-5-5-5------------|
A--6-6-6-6-6-6-6-6-6-6-6-6-6-6-6-6-6-6------------|
E--3-3-3-3-3-3-3-3-3-3-3-3-3-3-3-3-3-3------------|

e-------------------------------------------------|
B-------------------------------------------------|
G--3-3-3-3-3-3-3-3-3-3-3-3-3-3-3-3-3-3------------|
D--3-3-3-3-3-3-3-3-3-3-3-3-3-3-3-3-3-3------------|
A--1-1-1-1-1-1-1-1-1-1-1-1-1-1-1-1-1-1------------|
E-------------------------------------------------|

e-------------------------------------------------|
B-------------------------------------------------|
G--3-3-3-3-3-3-3-3-3-3-3-3-3-3-3-3-3-3------------|
D--3-3-3-3-3-3-3-3-3-3-3-3-3-3-3-3-3-3------------|
A--3-3-3-3-3-3-3-3-3-3-3-3-3-3-3-3-3-3------------|
E-------------------------------------------------|

From 0:23 to 0:48
e-------------------------------------------------|
B--------------------------------------13---------|
G------15-14-15--------------12-----15------------|
D--12-------------12-13-15-------15---------------|
A-------------------------------------------------|
E-------------------------------------------------|

e-------------------------------------------------|
B-----------------------------------15-13---------|
G------15-14-15--------------12-------------------|
D--12-------------12-13-15-------15---------------|
A-------------------------------------------------|
E-------------------------------------------------|

e-------------------------------------------------|
B--------------------------------------13---------|
G------15-14-15--------------12-----15------------|
D--12-------------12-13-15-------15---------------|
A-------------------------------------------------|
E-------------------------------------------------|

e-------------------------------------------------|
B-------------------------------13----------------|
G------15-14-12-----12-12-14-15-15---15-14-12-10--|
D--12---------------------------------------------|
A-------------------------------------------------|
E-------------------------------------------------|

From 0:48 to 1:14
e-------------------------------------------------------------------|
B-------------------------------------------------------------------|
G--7-7-7-7-7-7-7-7-7-7-7-7-7-7-7-7-8-8-8-8-8-8-8-8-8-8-8-8-8-8-8-8--|
D--5-5-5-5-5-5-5-5-5-5-5-5-5-5-5-5-5-5-5-5-5-5-5-5-5-5-5-5-5-5-5-5--|
A-------------------------------------------------------------------|
E-------------------------------------------------------------------|

e-------------------------------------------------------------------|
B-------------------------------------------------------------------|
G--7-7-7-7-7-7-7-7-7-7-7-7-7-7-7-7-8-8-8-8-8-8-8-8-8-8-8-8-8-8-8-8--|
D--5-5-5-5-5-5-5-5-5-5-5-5-5-5-5-5-5-5-5-5-5-5-5-5-5-5-5-5-5-5-5-5--|
A-------------------------------------------------------------------|
E-------------------------------------------------------------------|

e-------------------------------------------------|
B-------------------------------------------------|
G--10-10-10-10-10-10-10-10------------------------|
D--7--7--7--7--7--7--7--7-------------------------|
A-------------------------------------------------|
E-------------------------------------------------|

From 1:14 till the end.
e-------------------------------------------------|
B--------------------------------------13---------|
G------15-14-15--------------12-----15------------|
D--12-------------12-13-15-------15---------------|
A-------------------------------------------------|
E-------------------------------------------------|

e-------------------------------------------------|
B-------------------------13--15-15----15-13------|
G------15-14-15-----14-15-----------15------------|
D--12------------12-------------------------------|
A-------------------------------------------------|
E-------------------------------------------------|

e------------------15-----------------------------|
B--16--16-15----15----------15--15-------13-------|
G------------17---------15---------17-15----------|
D-------------------------------------------------|
A-------------------------------------------------|
E-------------------------------------------------|

e-------------------------------------------------|
B-------------------------13-15-13----------------|
G--15-14-12---12-12-14-15-------------------------|
D---------------------------------------------5---|
A---------------------------------------------5---|
E---------------------------------------------3---|

That's it and you're welcome.
Добавлено: 27.08.2013
Другие материалы по этой песне:

Страница создана 27.08.2013
http://primanota.ru/two-steps-from-hell/dragon-rider-chords.htm
Привет, Гость.
Предлагаем пройти революционный курс по гитаре.
Подарок от PrimaNota.Ru, забирай!