PrimaNota.ru - самый крупный в мире бесплатный архив песенных текстов, аккордов, табулатур и нот


Two Steps From Hell - Archangel - таба, видео

Регистрация Запомнить меня
Войти через:  Facebook Google Twitter Vk Yandex Mail.ru

Two Steps From Hell - Archangel - таба, видео

Печатать
Просмотров: 407
Авторы музыки: Thomas J. Bergersen

-------------------------------------------------------------------------------
                             SONG NAME - Band Name
-------------------------------------------------------------------------------
Tabbed by:
E-mail:

Tuning:

e|--------0---0---1---1---3---3---5---5---3---3---1---1---0---0---1---3------|
B|----3-------3-------3-------3-------3-------3-------3-------3-------1------|
G|----2-------2-------2-------2-------3-------3-------3-------3-------0------|
D|---------------------------------------------------------------------------|
A|---------------------------------------------------------------------------|
E|---------------------------------------------------------------------------|

e|----1---1---0---0-------0---0---1-----------1---1---0---0---0--------------|
B|--------1-------1---3---3-------3---3---3---3---1-------1------------------|
G|--------0-------0-------0-------2---2---2---2---0-------2------------------|
D|---------------------------------------------------------------------------|
A|---------------------------------------------------------------------------|
E|---------------------------------------------------------------------------|

Добавлено: 25.07.2015
Другие материалы по этой песне:
  • Аккорды и текст

Страница создана 25.07.2015
http://primanota.ru/two-steps-from-hell/archangel-chords.htm
Привет, Гость.
Предлагаем пройти революционный курс по гитаре.
Подарок от PrimaNota.Ru, забирай!