PrimaNota.ru - самый крупный в мире бесплатный архив песенных текстов, аккордов, табулатур и нот


Two Steps From Hell - Jump - таба, видео

Регистрация Запомнить меня
Войти через:  Facebook Google Twitter Vk Yandex Mail.ru

Two Steps From Hell - Jump - таба, видео

Печатать
Просмотров: 253
Уроки эстрадного вокала в Санкт-Петербурге
Two Steps From Hell - Jump! (short version)

Tuning: Drop C

Intro (2x)

D|------------------------------------------------|
A|------------------------------------------------|
F|------------------------------------------------|
C|------------------------------------------------|
G|--2-2---2-2---2-2---2-2---2-2---2-2---5-5---9-9-|
C|--0-0---0-0---0-0---0-0---0-0---0-0---3-3---7-7-|


Solo

D|---------------------------------------------------------------------------------|
A|---------------------------------------------------------------------------------|
F|---------------------------------------------------------------------------------|
C|---------------------------------------------------------------------------------|
G|---------------------------------------------------------------------------------|
C|--0-0--3-0--0-0--3-0--0-0--3-0--0-0--3-0--0-0--3-0--0-0--3-0--0-0--3-0--3-0--3-0-| (3x)


D|---------------------------------------------------------------------------------|
A|---------------------------------------------------------------------------------|
F|---------------------------------------------------------------------------------|
C|---------------------------------------------------------------------------------|
G|--------------------------------0-------------------0-0--0-0-------0-0--0-0--0-0-|
C|--0-0--3-0--0-0--3-0--0-0--3-0--0-0--3-0--0-0--3-0--0-0--3-0--0-0--3-0--3-0--3-0-|


Main

D|-----------------|----------------|----------------|----------------|
A|-----------------|----------------|----------------|----------------|
F|-----------------|----------------|----------------|----------------|
C|-----------------|----------------|----------------|----------------|
G|--X-X-2--X-X-3-X-|-X-X-2--X-X-0-X-|-X-X-2--X-X-3-X-|-5-5--5--7-7--7-|
C|--0-0----0-0---0-|-0-0----0-0---0-|-0-0----0-0---0-|-3-3--3--5-5--5-| (2x)


D|-----------------|----------------|----------------|----------------|
A|-----------------|----------------|----------------|----------------|
F|-----------------|----------------|----------------|----------------|
C|-----------------|----------------|----------------|----------------|
G|--2-2-2--2-2-3-2-|-2-2-2--2-2-3-2-|-2-2-2--2-2-3-2-|-5-5--5--7-7--7-|
C|--0-0-0--0-0---0-|-0-0-0--0-0---0-|-0-0-0--0-0---0-|-3-3--3--5-5--5-|


D|-----------------|----------------|----------------|----------------|
A|-----------------|----------------|----------------|----------------|
F|-----------------|----------------|----------------|----------------|
C|-----------------|----------------|----------------|----------------|
G|--2-2-2--2-2-3-2-|-2-2-2--2-2-0-2-|-2-2-2--2-2-3-2-|-5-5--5--7-7--7-|
C|--0-0----0-0---0-|-0-0-0--0-0---0-|-0-0----0-0---0-|-3-3--3--5-5--5-|


D|-----------------|----------------|----------------|----------------|
A|-----------------|----------------|----------------|----------------|
F|-----------------|----------------|----------------|----------------|
C|-----------------|----------------|----------------|----------------|
G|--2-2-2--2-2-3-2-|-2-2-2--2-2-0-2-|-2-2-2--2-2-3-2-|-5-5--5--7-7--7-|
C|--0-0----0-0---0-|-0-0----0-0---0-|-0-0----0-0---0-|-3-3--3--5-5--5-|


D|-----------------|----------------|----------------|----------------|
A|-----------------|----------------|----------------|----------------|
F|-----------------|----------------|----------------|----------------|
C|-----------------|----------------|----------------|----------------|
G|--2-2-2--2-2-3-2-|-2-2-2--2-2-0-2-|-2-2-2--2-2-3-2-|-5-5--5--7-7--7-|
C|--0-0----0-0---0-|-0-0----0-0---0-|-0-0----0-0---0-|-3-3--3--5-5--5-|


End

D|---------|
A|---------|
F|---------|
C|---------|
G|---2-2---|
C|---0-0---|


Hope it's working =)
-dommk97
Добавлено: 25.07.2015
Вам также может быть интересно:
Другие материалы по этой песне:
  • Аккорды и текст

Страница создана 25.07.2015
http://primanota.ru/two-steps-from-hell/jump-chords.htm
Привет, Гость.
Предлагаем пройти революционный курс по гитаре.
Подарок от PrimaNota.Ru, забирай!