PrimaNota.ru - самый крупный в мире бесплатный архив песенных текстов, аккордов, табулатур и нот


Trivium - Ignition - текст песни, таба, видео

Регистрация Запомнить меня
Войти через:  Facebook Google Twitter Vk Yandex Mail.ru

Trivium - Ignition - текст песни, таба, видео

Печатать
Просмотров: 195
Авторы музыки: Matt Heafy

IGNITION
by Trivium

UPDATE: 21/10/06 Chorus added.  Still working on the strings, but they should be up as of next week.

UPDATE: 25/10/06 Alignment issues solved, lyrics added.  Still no strings...

Gtr I (E A D G B E) - 'Matt' 
Gtr II (E A D G B E) - 'Corey' 

 Intro
  Q=240
 4/4                2/4     4/4
  Gtr I
   E  E  Q  Q   Q    Q  Q    S S E S S E Q  S S E   S S E Q  S S E Q
|------------------|-------|----------------------|-------------------|
|------------------|-------|----------------------|-------------------|
|------------------|-------|----------------------|-------------------|
|--8--9--8--6---8--|-6--5--|-------------6--------|-------6--------8--|
|--8--9--8--6---8--|-6--5--|-5-5-5-5-5-5-6--5-5-5-|-5-5-5-6--5-5-5-8--|
|--6--7--6--4---6--|-4--3--|-3-3-3-3-3-3-4--3-3-3-|-3-3-3-4--3-3-3-6--|
|
| Gtr II
|  E  E  Q  Q   Q    Q  Q    S S E S S E Q  S S E   S S E Q  S S E Q
|------------------|-------|----------------------|-------------------|
|------------------|-------|----------------------|-------------------|
|-10-11-10--8--10--|-8--7--|----------------------|-------------------|
|------------------|-------|----------------------|-------------------|
|--8--9--8--6---8--|-6--5--|-5-5-5-5-5-5----5-5-5-|-5-5-5----5-5-5----|
|------------------|-------|-3-3-3-3-3-3----3-3-3-|-3-3-3----3-3-3----|


                                           2/4
  S S E S S E Q  S S E    E  E  Q  Q   Q    Q  Q
|----------------------|------------------|-------|
|----------------------|------------------|-------|
|----------------------|------------------|-------|
|-------------6--------|--8--9--8--6---8--|-6--5--|
|-5-5-5-5-5-5-6--5-5-5-|--8--9--8--6---8--|-6--5--|
|-3-3-3-3-3-3-4--3-3-3-|--6--7--6--4---6--|-4--3--|
|
| S S E S S E Q  S S E    E  E  Q  Q   Q    Q  Q
|----------------------|------------------|-------|
|----------------------|------------------|-------|
|----------------------|-10-11-10--8--10--|-8--7--|
|----------------------|------------------|-------|
|-5-5-5-5-5-5----5-5-5-|--8--9--8--6---8--|-6--5--|
|-3-3-3-3-3-3----3-3-3-|------------------|-------|


 4/4
  S S E S S E Q  S S E   S S E Q  S S E Q
|----------------------|-------------------|
|----------------------|-------------------|
|----------------------|-------------------|
|-------------6--------|-------6--------8--|
|-5-5-5-5-5-5-6--5-5-5-|-5-5-5-6--5-5-5-8--|
|-3-3-3-3-3-3-4--3-3-3-|-3-3-3-4--3-3-3-6--|
|
| S S E S S E Q  S S E   S S E Q  S S E
|----------------------|-------------------|
|----------------------|-------------------|
|----------------------|-------------------|
|----------------------|-------------------|
|-5-5-5-5-5-5----5-5-5-|-5-5-5----5-5-5----|
|-3-3-3-3-3-3----3-3-3-|-3-3-3----3-3-3----|


                                           2/4
  S S E S S E Q  S S E    E  E  Q  Q   Q    Q  Q
|----------------------|------------------|-------|
|----------------------|------------------|-------|
|----------------------|------------------|-------|
|-------------6--------|--8--9--8--6---8--|-6--5--|
|-5-5-5-5-5-5-6--5-5-5-|--8--9--8--6---8--|-6--5--|
|-3-3-3-3-3-3-4--3-3-3-|--6--7--6--4---6--|-4--3--|
|
| S S E S S E Q  S S E    E  E  Q  Q   Q    Q  Q
|----------------------|------------------|-------|
|----------------------|------------------|-------|
|----------------------|-10-11-10--8--10--|-8--7--|
|----------------------|------------------|-------|
|-5-5-5-5-5-5----5-5-5-|--8--9--8--6---8--|-6--5--|
|-3-3-3-3-3-3----3-3-3-|------------------|-------|


 Verse One
 4/4
  E E E E E E E E   E E E E E E E E   E E E E E E E E   E E E E E E E E
|-----------------|-----------------|-----------------|------------------|
|-----------------|-----------------|-----------------|------------------|
|-----------------|-----------------|-----------------|------------------|
|-----------------|---------3-6-6-6-|-----------------|-------3-6-3------|
|-7-------8---5---|-7---------------|-7-------8---5---|---2-5-------5-2--|
|---0-0-0---0---0-|---0-0-0-1-4-4-4-|---0-0-0---0---0-|-4----------------|
|
| E E E E E E E E   E E E E E E E E   E E E E E E E E   E E E E E E E E
|-----------------|-----------------|-----------------|------------------|
|-----------------|-----------------|-----------------|------------------|
|-----------------|-----------------|-----------------|-------1-4-1------|
|-----------------|---------3-6-6-6-|-----------------|---2-3-------3-2--|
|-7-------8---5---|-7---------------|-7-------8---5---|-2----------------|
|---0-0-0---0---0-|---0-0-0-1-4-4-4-|---0-0-0---0---0-|------------------|


  E E E E E E E E   E E E E E E E E   E E E E E E E E   E E E E E E E E
|-----------------|-----------------|-----------------|-----------------|
|-----------------|-----------------|-----------------|-----------------|
|-----------------|-----------------|-----------------|-----------------|
|-----------------|---------3-6-6-6-|-----------------|-------3-6-3-----|
|-7-------8---5---|-7---------------|-7-------8---5---|---2-5-------5-2-|
|---0-0-0---0---0-|---0-0-0-1-4-4-4-|---0-0-0---0---0-|-4---------------|
|
| E E E E E E E E   E E E E E E E E   E E E E E E E E   E E E E E E E E
|-----------------|-----------------|-----------------|-----------------|
|-----------------|-----------------|-----------------|-----------------|
|-----------------|-----------------|-----------------|-------1-4-1-----|
|-----------------|---------3-6-6-6-|-----------------|---2-3-------3-2-|
|-7-------8---5---|-7---------------|-7-------8---5---|-2---------------|
|---0-0-0---0---0-|---0-0-0-1-4-4-4-|---0-0-0---0---0-|-----------------|


  S S E S S E Q  S S E   S S E Q  S S E Q
|----------------------|-------------------|
|----------------------|-------------------|
|----------------------|-------------------|
|-------------6--------|-------6--------8--|
|-5-5-5-5-5-5-6--5-5-5-|-5-5-5-6--5-5-5-8--|
|-3-3-3-3-3-3-4--3-3-3-|-3-3-3-4--3-3-3-6--|
|
| S S E S S E Q  S S E   S S E Q  S S E
|----------------------|-------------------|
|----------------------|-------------------|
|----------------------|-------------------|
|----------------------|-------------------|
|-5-5-5-5-5-5----5-5-5-|-5-5-5----5-5-5----|
|-3-3-3-3-3-3----3-3-3-|-3-3-3----3-3-3----|


                                           2/4
  S S E S S E Q  S S E    E  E  Q  Q   Q    Q  Q
|----------------------|------------------|--------|
|----------------------|------------------|--------|
|----------------------|------------------|--------|
|-------------6--------|--8--9--8--6---8--|-6--5---|
|-5-5-5-5-5-5-6--5-5-5-|--8--9--8--6---8--|-6--5---|
|-3-3-3-3-3-3-4--3-3-3-|--6--7--6--4---6--|-4--3---|
|
| S S E S S E Q  S S E    E  E  Q  Q   Q    Q  Q
|----------------------|------------------|--------|
|----------------------|------------------|--------|
|----------------------|-10-11-10--8--10--|-8--7---|
|----------------------|------------------|--------|
|-5-5-5-5-5-5----5-5-5-|--8--9--8--6---8--|-6--5---|
|-3-3-3-3-3-3----3-3-3-|------------------|--------|


 4/4
  S S E S S E Q  S S E   S S E Q  S S E Q
|----------------------|-------------------|
|----------------------|-------------------|
|----------------------|-------------------|
|-------------6--------|-------6--------8--|
|-5-5-5-5-5-5-6--5-5-5-|-5-5-5-6--5-5-5-8--|
|-3-3-3-3-3-3-4--3-3-3-|-3-3-3-4--3-3-3-6--|
|
| S S E S S E Q  S S E   S S E Q  S S E
|----------------------|-------------------|
|----------------------|-------------------|
|----------------------|-------------------|
|----------------------|-------------------|
|-5-5-5-5-5-5----5-5-5-|-5-5-5----5-5-5----|
|-3-3-3-3-3-3----3-3-3-|-3-3-3----3-3-3----|


                                           2/4
  S S E S S E Q  S S E    E  E  Q  Q   Q    Q  Q
|----------------------|------------------|-------|
|----------------------|------------------|-------|
|----------------------|------------------|-------|
|-------------6--------|--8--9--8--6---8--|-6--5--|
|-5-5-5-5-5-5-6--5-5-5-|--8--9--8--6---8--|-6--5--|
|-3-3-3-3-3-3-4--3-3-3-|--6--7--6--4---6--|-4--3--|
|
| S S E S S E Q  S S E    E  E  Q  Q   Q    Q  Q
|----------------------|------------------|-------|
|----------------------|------------------|-------|
|----------------------|-10-11-10--8--10--|-8--7--|
|----------------------|------------------|-------|
|-5-5-5-5-5-5----5-5-5-|--8--9--8--6---8--|-6--5--|
|-3-3-3-3-3-3----3-3-3-|------------------|-------|


 4/4
  E E E E E E E E   E E E E E E E E   E E E E E E E E   E E E E E E E E
|-----------------|-----------------|-----------------|------------------|
|-----------------|-----------------|-----------------|------------------|
|-----------------|-----------------|-----------------|------------------|
|-----------------|---------3-6-6-6-|-----------------|-------3-6-3------|
|-7-------8---5---|-7---------------|-7-------8---5---|---2-5-------5-2--|
|---0-0-0---0---0-|---0-0-0-1-4-4-4-|---0-0-0---0---0-|-4----------------|
|
| E E E E E E E E   E E E E E E E E   E E E E E E E E   E E E E E E E E
|-----------------|-----------------|-----------------|------------------|
|-----------------|-----------------|-----------------|------------------|
|-----------------|-----------------|-----------------|-------1-4-1------|
|-----------------|---------3-6-6-6-|-----------------|---2-3-------3-2--|
|-7-------8---5---|-7---------------|-7-------8---5---|-2----------------|
|---0-0-0---0---0-|---0-0-0-1-4-4-4-|---0-0-0---0---0-|------------------|


  E E E E E E E E   E E E E E E E E   E E E E E E E E   E E E E E E E E
|-----------------|-----------------|-----------------|-------------------|
|-----------------|-----------------|-----------------|-------------------|
|-----------------|-----------------|-----------------|-------------------|
|-----------------|---------3-6-6-6-|-----------------|-------3-6-3-------|
|-7-------8---5---|-7---------------|-7-------8---5---|---2-5-------5-2---|
|---0-0-0---0---0-|---0-0-0-1-4-4-4-|---0-0-0---0---0-|-4-----------------|
|
| E E E E E E E E   E E E E E E E E   E E E E E E E E   E E E E E E E E
|-----------------|-----------------|-----------------|-------------------|
|-----------------|-----------------|-----------------|-------------------|
|-----------------|-----------------|-----------------|-------1-4-1-------|
|-----------------|---------3-6-6-6-|-----------------|---2-3-------3-2---|
|-7-------8---5---|-7---------------|-7-------8---5---|-2-----------------|
|---0-0-0---0---0-|---0-0-0-1-4-4-4-|---0-0-0---0---0-|-------------------|


  S S E S S E Q  S S E   S S E Q  S S E Q
|----------------------|-------------------|
|----------------------|-------------------|
|----------------------|-------------------|
|-------------6--------|-------6--------8--|
|-5-5-5-5-5-5-6--5-5-5-|-5-5-5-6--5-5-5-8--|
|-3-3-3-3-3-3-4--3-3-3-|-3-3-3-4--3-3-3-6--|
|
| S S E S S E Q  S S E   S S E Q  S S E
|----------------------|-------------------|
|----------------------|-------------------|
|----------------------|-------------------|
|----------------------|-------------------|
|-5-5-5-5-5-5----5-5-5-|-5-5-5----5-5-5----|
|-3-3-3-3-3-3----3-3-3-|-3-3-3----3-3-3----|


                                           2/4
  S S E S S E Q  S S E    E  E  Q  Q   Q    Q  Q
|----------------------|------------------|--------|
|----------------------|------------------|--------|
|----------------------|------------------|--------|
|-------------6--------|--8--9--8--6---8--|-6--5---|
|-5-5-5-5-5-5-6--5-5-5-|--8--9--8--6---8--|-6--5---|
|-3-3-3-3-3-3-4--3-3-3-|--6--7--6--4---6--|-4--3---|
|
| S S E S S E Q  S S E    E  E  Q  Q   Q    Q  Q
|----------------------|------------------|--------|
|----------------------|------------------|--------|
|----------------------|-10-11-10--8--10--|-8--7---|
|----------------------|------------------|--------|
|-5-5-5-5-5-5----5-5-5-|--8--9--8--6---8--|-6--5---|
|-3-3-3-3-3-3----3-3-3-|------------------|--------|


 4/4
  S S E S S E Q  S S E   S S E Q  S S E Q
|----------------------|-------------------|
|----------------------|-------------------|
|----------------------|-------------------|
|-------------6--------|-------6--------8--|
|-5-5-5-5-5-5-6--5-5-5-|-5-5-5-6--5-5-5-8--|
|-3-3-3-3-3-3-4--3-3-3-|-3-3-3-4--3-3-3-6--|
|
| S S E S S E Q  S S E   S S E Q  S S E
|----------------------|-------------------|
|----------------------|-------------------|
|----------------------|-------------------|
|----------------------|-------------------|
|-5-5-5-5-5-5----5-5-5-|-5-5-5----5-5-5----|
|-3-3-3-3-3-3----3-3-3-|-3-3-3----3-3-3----|


                                           2/4
  S S E S S E Q  S S E    E  E  Q  Q   Q    Q  Q
|----------------------|------------------|-------|
|----------------------|------------------|-------|
|----------------------|------------------|-------|
|-------------6--------|--8--9--8--6---8--|-6--5--|
|-5-5-5-5-5-5-6--5-5-5-|--8--9--8--6---8--|-6--5--|
|-3-3-3-3-3-3-4--3-3-3-|--6--7--6--4---6--|-4--3--|
|
| S S E S S E Q  S S E    E  E  Q  Q   Q    Q  Q
|----------------------|------------------|-------|
|----------------------|------------------|-------|
|----------------------|-10-11-10--8--10--|-8--7--|
|----------------------|------------------|-------|
|-5-5-5-5-5-5----5-5-5-|--8--9--8--6---8--|-6--5--|
|-3-3-3-3-3-3----3-3-3-|------------------|-------|


 4/4
  E E E E E E E E   E E E E E E E E   E E E E E E E E   E E E E E E E E
|-----------------|-----------------|-----------------|------------------|
|-----------------|-----------------|-----------------|------------------|
|-----------------|-----------------|-----------------|------------------|
|-----------------|---------3-6-6-6-|-----------------|-------3-6-3------|
|-7-------8---5---|-7---------------|-7-------8---5---|---2-5-------5-2--|
|---0-0-0---0---0-|---0-0-0-1-4-4-4-|---0-0-0---0---0-|-4----------------|
|
| E E E E E E E E   E E E E E E E E   E E E E E E E E   E E E E E E E E
|-----------------|-----------------|-----------------|------------------|
|-----------------|-----------------|-----------------|------------------|
|-----------------|-----------------|-----------------|-------1-4-1------|
|-----------------|---------3-6-6-6-|-----------------|---2-3-------3-2--|
|-7-------8---5---|-7---------------|-7-------8---5---|-2----------------|
|---0-0-0---0---0-|---0-0-0-1-4-4-4-|---0-0-0---0---0-|------------------|


  E E E E E E E E   E E E E E E E E   E E E E E E E E   E E E E E E E E
|-----------------|-----------------|-----------------|-------------------|
|-----------------|-----------------|-----------------|-------------------|
|-----------------|-----------------|-----------------|-------------------|
|-----------------|---------3-6-6-6-|-----------------|-------3-6-3-------|
|-7-------8---5---|-7---------------|-7-------8---5---|---2-5-------5-2---|
|---0-0-0---0---0-|---0-0-0-1-4-4-4-|---0-0-0---0---0-|-4-----------------|
|
| E E E E E E E E   E E E E E E E E   E E E E E E E E   E E E E E E E E
|-----------------|-----------------|-----------------|-------------------|
|-----------------|-----------------|-----------------|-------------------|
|-----------------|-----------------|-----------------|-------1-4-1-------|
|-----------------|---------3-6-6-6-|-----------------|---2-3-------3-2---|
|-7-------8---5---|-7---------------|-7-------8---5---|-2-----------------|
|---0-0-0---0---0-|---0-0-0-1-4-4-4-|---0-0-0---0---0-|-------------------|


 Prechorus
  S S E S S E S S E S S E   S S E S S E  Q  Q
|-------------------------|--------------------|
|-------------------------|--------------------|
|-------------------------|-------------10--9--|
|-------------------------|--------------------|
|-2-2-2-2-2-2-2-2-2-2-2-2-|-2-2-2-2-2-2--8--7--|
|-0-0-0-0-0-0-0-0-0-0-0-0-|-0-0-0-0-0-0--------|
|
| S S E S S E S S E S S E   S S E S S E  Q  Q
|-------------------------|--------------------|
|-------------------------|--------------------|
|-------------------------|-------------10--9--|
|-------------------------|--------------------|
|-2-2-2-2-2-2-2-2-2-2-2-2-|-2-2-2-2-2-2--8--7--|
|-0-0-0-0-0-0-0-0-0-0-0-0-|-0-0-0-0-0-0--------|


  S S E S S E S S E S S E   S S E S S E Q  Q
|-------------------------|-------------------|
|-------------------------|-------------------|
|-------------------------|-------------------|
|-------------------------|-------------7--6--|
|-2-2-2-2-2-2-2-2-2-2-2-2-|-2-2-2-2-2-2-------|
|-0-0-0-0-0-0-0-0-0-0-0-0-|-0-0-0-0-0-0-5--4--|
|
| S S E S S E S S E S S E   S S E S S E Q  Q
|-------------------------|-------------------|
|-------------------------|-------------------|
|-------------------------|-------------------|
|-------------------------|-------------7--6--|
|-2-2-2-2-2-2-2-2-2-2-2-2-|-2-2-2-2-2-2-------|
|-0-0-0-0-0-0-0-0-0-0-0-0-|-0-0-0-0-0-0-5--4--|


  S S E S S E S S E S S E   S S E S S E  Q  Q
|-------------------------|--------------------|
|-------------------------|--------------------|
|-------------------------|-------------10--9--|
|-------------------------|--------------------|
|-2-2-2-2-2-2-2-2-2-2-2-2-|-2-2-2-2-2-2--8--7--|
|-0-0-0-0-0-0-0-0-0-0-0-0-|-0-0-0-0-0-0--------|
|
| S S E S S E S S E S S E   S S E S S E  Q  Q
|-------------------------|--------------------|
|-------------------------|--------------------|
|-------------------------|-------------10--9--|
|-------------------------|--------------------|
|-2-2-2-2-2-2-2-2-2-2-2-2-|-2-2-2-2-2-2--8--7--|
|-0-0-0-0-0-0-0-0-0-0-0-0-|-0-0-0-0-0-0--------|


  S S E S S E Q  Q    S S E S S E  Q  Q
|-------------------|----------------------|
|-------------------|----------------------|
|-------------------|----------------------|
|-------------7--6--|-------------10--9----|
|-2-2-2-2-2-2-------|-2-2-2-2-2-2----------|
|-0-0-0-0-0-0-5--4--|-0-0-0-0-0-0--8--7----|
|
| S S E S S E Q  Q    S S E S S E  Q  Q
|-------------------|----------------------|
|-------------------|----------------------|
|-------------------|----------------------|
|-------------7--6--|-------------10--9----|
|-2-2-2-2-2-2-------|-2-2-2-2-2-2----------|
|-0-0-0-0-0-0-5--4--|-0-0-0-0-0-0--8--7----|


  S S E S S E S S E S S E   S S E S S E  Q  Q
|-------------------------|--------------------|
|-------------------------|--------------------|
|-------------------------|-------------10--9--|
|-------------------------|--------------------|
|-2-2-2-2-2-2-2-2-2-2-2-2-|-2-2-2-2-2-2--8--7--|
|-0-0-0-0-0-0-0-0-0-0-0-0-|-0-0-0-0-0-0--------|
|
| S S E S S E S S E S S E   S S E S S E  Q  Q
|-------------------------|--------------------|
|-------------------------|--------------------|
|-------------------------|-------------10--9--|
|-------------------------|--------------------|
|-2-2-2-2-2-2-2-2-2-2-2-2-|-2-2-2-2-2-2--8--7--|
|-0-0-0-0-0-0-0-0-0-0-0-0-|-0-0-0-0-0-0--------|


  S S E S S E S S E S S E   S S E S S E Q  Q
|-------------------------|-------------------|
|-------------------------|-------------------|
|-------------------------|-------------------|
|-------------------------|-------------7--6--|
|-2-2-2-2-2-2-2-2-2-2-2-2-|-2-2-2-2-2-2-------|
|-0-0-0-0-0-0-0-0-0-0-0-0-|-0-0-0-0-0-0-5--4--|
|
| S S E S S E S S E S S E   S S E S S E Q  Q
|-------------------------|-------------------|
|-------------------------|-------------------|
|-------------------------|-------------------|
|-------------------------|-------------7--6--|
|-2-2-2-2-2-2-2-2-2-2-2-2-|-2-2-2-2-2-2-------|
|-0-0-0-0-0-0-0-0-0-0-0-0-|-0-0-0-0-0-0-5--4--|


  S S E S S E S S E S S E   S S E S S E  Q  Q
|-------------------------|--------------------|
|-------------------------|--------------------|
|-------------------------|-------------10--9--|
|-------------------------|--------------------|
|-2-2-2-2-2-2-2-2-2-2-2-2-|-2-2-2-2-2-2--8--7--|
|-0-0-0-0-0-0-0-0-0-0-0-0-|-0-0-0-0-0-0--------|
|
| S S E S S E S S E S S E   S S E S S E  Q  Q
|-------------------------|--------------------|
|-------------------------|--------------------|
|-------------------------|-------------10--9--|
|-------------------------|--------------------|
|-2-2-2-2-2-2-2-2-2-2-2-2-|-2-2-2-2-2-2--8--7--|
|-0-0-0-0-0-0-0-0-0-0-0-0-|-0-0-0-0-0-0--------|


  S S E S S E Q  Q    S S E S S E  Q  Q
|-------------------|----------------------|
|-------------------|----------------------|
|-------------------|----------------------|
|-------------7--6--|-------------10--9----|
|-2-2-2-2-2-2-------|-2-2-2-2-2-2----------|
|-0-0-0-0-0-0-5--4--|-0-0-0-0-0-0--8--7----|
|
| S S E S S E Q  Q    S S E S S E  Q  Q
|-------------------|----------------------|
|-------------------|----------------------|
|-------------------|----------------------|
|-------------7--6--|-------------10--9----|
|-2-2-2-2-2-2-------|-2-2-2-2-2-2----------|
|-0-0-0-0-0-0-5--4--|-0-0-0-0-0-0--8--7----|


 Chorus
  Half Time Feel Q=120
  Q  S S Q  E E E   Q  S S Q.   E E   Q  S S Q.   E E
|-----------------|-----------------|--------------------|
|-----------------|-----------------|--------------------|
|-----------------|-----------------|-9--9-9-9----9------|
|-6--6-6-6--6-6---|-6--6-6-6----6---|-9--9-9-9----9------|
|-6--6-6-6--6-6---|-6--6-6-6----6---|-7--7-7-7----7------|
|-4--4-4-4--4-4---|-4--4-4-4----4---|--------------------|


  Q  S S Q.   E E   Q  S S Q.   E E   Q  S S Q.   E E
|-----------------|-----------------|--------------------|
|-----------------|-----------------|--------------------|
|-9--9-9-9----9---|-6--6-6-6----6---|--------------------|
|-9--9-9-9----9---|-6--6-6-6----6---|-5--5-5-5----5------|
|-7--7-7-7----7---|-4--4-4-4----4---|-6--6-6-6----6------|
|-----------------|-----------------|-3--3-3-3----3------|


                          ~~~~~~~
  Q  S S Q  E E E   E E E H    +E
|-----------------|----------------|
|-----------------|----------------|
|-----------------|-------8----(8)-|
|-6--6-6-6--6-6---|---5-8----------|
|-6--6-6-6--6-6---|-6--------------|
|-4--4-4-4--4-4---|----------------|

LYRICS:

Raise the guns
On every self made suspicion
Build the bombs
Corrupt policy's decision

That's the sound of integrity breaking it's back
In a country founded as a thievery act

Raise the guns
On every self made suspicion
Build the bombs
Corrupt policy's decision

Times are dark with our children spoon-fed ignorance
Inheritance of an anxious trigger finger

Raise the guns
On every self made suspicion
Build the bombs
Corrupt policy's decision

Our leaders preach if we disagree
We're the traitors of society
Homophobia, racism, sexism
Our systems breed supremacy

Ignition
Inception
Burning is a fuse to destruction
Break the walls of ignorance
To disarm the world for its last chance

Time again for a war
On an enemy that isn't real
Greedy selfish warlords
Feed the agenda, deaths the meal

Solo: Matt

Thats the sound, impending fear crawling up your spine
In a country where nothing is truly made clear

Raise the guns
On every self made suspicion
Build the bombs
Corrupt policy's decision

Our leaders preach if we disagree
We're the traitors of society
Homophobia, racism, sexism
Our systems breed supremacy

Ignition
Inception
Burning is a fuse to destruction
Break the walls of ignorance
To disarm the world for its last chance

Ignition
Inception
Burning is a fuse to destruction
Break the walls of ignorance
To disarm the world for its last chance
Добавлено: 13.06.2012
Другие материалы по этой песне:

Страница создана 02.03.2012
http://primanota.ru/trivium/ignition-chords.htm
Привет, Гость.
Предлагаем пройти революционный курс по гитаре.
Подарок от PrimaNota.Ru, забирай!