PrimaNota.ru - самый крупный в мире бесплатный архив песенных текстов, аккордов, табулатур и нот


Trivium - Crusade - таба, бас-таба, видео

Регистрация Запомнить меня
Войти через:  Facebook Google Twitter Vk Yandex Mail.ru

Trivium - Crusade - таба, бас-таба, видео

Печатать
Просмотров: 370
Авторы музыки: Matt Heafy

Artist: Trivium
Song: The crusade
Album: The crusade

Cmon people we gotta get this song tabbed, and fast

        Intro

     Guitar 1
E| -------------------------------------------------------------|
B| -------------------------------------------------------------|
G| -------------------------------------------------------------|
D| -------------------------------------------------------------|
A| -7--0--0--7--0--0--7--0--0--0--5--0--8--0--7--0--5--0--7--0--|
E| -------------------------------------------------------------|

E| --------------------------------------------------------------|
B| --------------------------------------------------------------|
G| --------------------------------------------------------------|
D| --------------------------------------------------------------|
A| -8--0--4--0--5--0--7--0--7--0--0--7--0--0--7-0--0--0--5--0--8-|
E| --------------------------------------------------------------|


	Guitar 2
E| --------------------------------------------------------------|
B| --------------------------------------------------------------|
G| --------------------------------------------------------------|
D| -2~-----------------------------------------------------------|
A| -2~-----------------------------------------------------------|
E| -0~-----------------------------------------------------------|
     HOLD NOTE

	Guitar 1	Guitar 1&2 end with this the first time
E| ----------------------------------------------------------------|
B| ----------------------------------------------------------------|
G| ----------------------------------------------------------------|
D| ----------------------------------------------------------------|
A| -0--7--0--12--0--10--0--8--0--10--8--0--7--0--------------------|
E| ----------------------------------------------------------------|

E| --------------------------------------------------------|
B| --------------------------------------------------------|
G| --------------------------------------------------------|
D| ---6~---------------------------------------------------|
A| ---6~---------------------------------------------------|
E| ---4~---------------------------------------------------|

Guitar 1&2 end with this the second time
E| --------------------------------------------------|
B| --------------------------------------------------|
G| --------------------------------------------------|
D| -6--7--8--9--10-----------------------------------|
A| -6--7--8--9--10-----------------------------------|
E| -4--5--6--7---8-----------------------------------|

	Guitar 1
E| -------------------------------------------------------------|
B| -------------------------------------------------------------|
G| -------------------------------------------------------------|
D| -10--0--0--10--0--0--10--0--9--0--0--9--0--0--9--0--6--0--7--|
A| -------------------------------------------------------------|
E| -------------------------------------------------------------|

E| ---------------------------------------------------------------|
B| ---------------------------------------------------------------|
G| ---------------------------------------------------------------|
D| ---------------------------------------------------------------|
A| -0--9--0--7--0--0--7--0--0--7--0--7--0--6--0--0--6--0--0--6--0-|
E| ---------------------------------------------------------------|

E| ---------------------|
B| ---------------------|
G| ---------------------|
D| ---------------------|
A| --4--0--6--0--7------|
E| ---------------------|
Добавлено: 11.03.2012
Другие материалы по этой песне:

Страница создана 21.02.2012
http://primanota.ru/trivium/crusade-chords.htm
Привет, Гость.
Предлагаем пройти революционный курс по гитаре.
Подарок от PrimaNota.Ru, забирай!