PrimaNota.ru - самый крупный в мире бесплатный архив песенных текстов, аккордов, табулатур и нот


Toto - Animal - текст песни, бас-таба, видео

Регистрация Запомнить меня
Войти через:  Facebook Google Twitter Vk Yandex Mail.ru

Toto - Animal - текст песни, бас-таба, видео

Печатать
Просмотров: 131
Toto - Animal

PRE-INTRO: Practise this many times for the timing, you'll need to think of what
the drums are going to play during the rests.

G|-----14~~12------------------------
D|-----14~~12--------5~--------------
A|------------------------------2----
E|------------0----------------------
B|-----------------------------------
                     P
INTRO:
G|-----|-------------------------|------------------------|
D|-----|*------------------------|------------------------|
A|---2-|*----------2--3-2--------|----------2--3-2--------|
E|-----|(0)-0--0-3--------3-0--0-|---0--0-3--------3-0--2-|
B|-----|-------------------------|------------------------|

G|-------------------------|-------------------------|
D|-------------------------|------------------------*|
A|-----------4--5-4--------|----------4--5-4---------|
E|---2--2-5---------5-2--2-|---2--2-5--------5-2--0-*|
B|-------------------------|-------------------------|

VERSE:
Play the intro riff (with the repeat), then:
G|-----------------------|-----------------------|
D|-----------------------|-----------------------|
A|-----------------2-----|-----------------------|
E|-4---------------------|-4---------------2--4--|
B|------0--2--4----------|------0----2--4--------|

G|-----------------------|-----------------------|
D|----------4-5--4-------|----------6--7----5~---|
A|----3/4-7--------7-4---|----5/6-9--------------|
E|-5--------------------7|-----------------------|
B|-----------------------|-----------------------|
                                            P
CHORUS:
G|-----------------------|-----------------------| \
D|*---------------------*|*---------------------*|  \
A|----------4-5--4-------|----------2-4--2-------|    2 times
E|*---3/4-7---------7-4-*|*---0-2-4---------4-2-*|  /
B|-5---------------------|-2---------------------| /

G|--|-----------------------|-----------------------|
D|--|----------6-7--6-------|----------4-5--4-------|
A|--|----5/6-9--------9-6---|----3/4-7--------7-4---|
E|-7|--7-------------------5|--5-------------------3|
B|--|-----------------------|-----------------------|

G|-------------------------|-----------------------|
D|----------2-3--2---------|--------4-5---6--7--8--|
A|----1/3-5----------------|--5-6-7----------------|
E|--3----------------5-6-7-|-----------------------|
B|-------------------------|-----------------------|

REPEAT VERSE
REPEAT CHORUS

BRIDGE/SOLO
G|-------------|-------------|--5----7-8---|
D|-------------|-------------|-------------|
A|-------------|-------------|-------------|
E|-------------|--5-6-7------|-----------0-|
B|-------------|-------------|-------------|

SOLO: repeat CHORUS
REPEAT VERSE, no lyrics during the first repeat
OUTRO: repeat CHORUS 2x
Добавлено: 29.12.2013
Другие материалы по этой песне:
  • Аккорды и текст

Страница создана 24.03.2012
http://primanota.ru/toto/animal-chords.htm
Привет, Гость.
Предлагаем пройти революционный курс по гитаре.
Подарок от PrimaNota.Ru, забирай!