PrimaNota.ru - самый крупный в мире бесплатный архив песенных текстов, аккордов, табулатур и нот


Toto - Carmen - текст песни, таба, бас-таба, видео

Регистрация Запомнить меня
Войти через:  Facebook Google Twitter Vk Yandex Mail.ru

Toto - Carmen - текст песни, таба, бас-таба, видео

Печатать
Просмотров: 159
-------------------------------------------------------------------------------
			     Carmen - Toto
-------------------------------------------------------------------------------
Tabbed by: Michael
Email: Michart56@gmail.com

Tuning: standard

Intro and Chorus "Carmen don't you ... "
e|---------------------------------|
B|---------------------------------|
G|---------------------------------|
D|-2------------------------p2-2-5-|
A|---2--------------p2-p2-p5-p5----|
E|-----0-aa~3-----x5---------------|

e|----------------------------------------|
B|----------------------------------------|
G|----------------------------------------|
D|-2-------------------------------2-2-h5-|
A|---2------------------p2-p2-p5-p5-------|
E|-----0-ab~3-----------------------------|

e|--------------------------------------|
B|--------------------------------------|
G|--------------------------------------|
D|-h2---------------------------p2-p2-5-|
A|---h2-----------------p2-p2-p5-p5-----|
E|-----0-ac~3---------------------------|


e|--------------------------------------|
B|--------------------------------------|
G|--------------------------------------|
D|-ad2---------------------------p2-2-5-|
A|---ac2-----------------p2-p2-p5-p5----|
E|-----aa3-aa~5-------------------------|


       Last night she ran away 
e|-----0------------------------|
B|-----0------------------------|
G|-----2------------------------|
D|-----2------------------------|
A|-----0------------------p0-p2-|
E|------------------------------|
       cresc. p > f 

         Left a letter by the telephone 
e|----------------------------------------------|
B|----------------------------------------------|
G|----------------------------------------------|
D|----------------------------------------------|
A|-p3-p3-p3-p3-p3-p3-p3-p3p3-p3-p3-p3-p3-3-3->3-|
E|----------------------------------------------|

************************************

| /   slide up
| \   slide down
| h   hammer-on
| p   pizzicato  " P.M "
| ~   vibrato
| x   Mute note
| a:
aa - A.H (3)
ab - A.H (4) 
ac - A.H (5)
ad - A.H (7)
cresc. - crescendo raises

************************************
Добавлено: 30.11.2013
Другие материалы по этой песне:
  • Аккорды и текст

Страница создана 10.06.2012
http://primanota.ru/toto/carmen-chords.htm
Привет, Гость.
Предлагаем пройти революционный курс по гитаре.
Подарок от PrimaNota.Ru, забирай!