PrimaNota.ru - самый крупный в мире бесплатный архив песенных текстов, аккордов, табулатур и нот


Toto - Drag Him To The Roof - текст песни, таба, видео

Регистрация Запомнить меня
Войти через:  Facebook Google Twitter Vk Yandex Mail.ru

Toto - Drag Him To The Roof - текст песни, таба, видео

Печатать
Просмотров: 95
This song is made of 3 basic riffs.

Intro/Verse riff:

e---------------------------------------------------------0-|
H---------------------------------------------------------0-|
G-----------------------------------------------------------|
D--2-----------------------------2--------------------------|
A----2---------------0--2----------2---------------0--2-----|
E------0--3----0--3--------3--0------0--3----0--3-------0---|

When playing verse play all this muted.

Prechorus: (play muted)

e---------------------------------------------------------------------|
H---------------------------------------------------------------------|
G--------4---------------6-----------------7----------------6---------|
D------5----5---5------7----7----7-------9-----9---9------7-----7---7-|
A----5--------5------7---------7-------9---------9------7---------7---|
E--3---------------5----------------7-----------------5---------------|


e--------------------------------------------------------------|
H--------------------------------------------------------------|
G--------4---------------6-----------------7----------------6--|
D------5----5---5------7----7----7-------9-----9---9------7----|
A----5--------5------7---------7-------9---------9------7------|
E--3---------------5----------------7-----------------5--------|

Chorus:

e----------------------------------------------------|
H----------------------------------------------------|
G--4--4-4/6-6--x--2-2--x----------4--4-4/6-6--x--2-2-|
D--4--4-4/6-6--x--2-2--x--2-2--x--4--4-4/6-6--x--2-2-|
A--2--2-2/4-4--x--0-0--x--2-2--x--2--2-2/4-4--x--0-0-|
E-------------------------0-0--x---------------------|

repeat

chorus ending (after last x note above):

e-----------------------------------------|
H-----------------------------------------|
G--------7---------6---------5--4-4-4-4-4-|
D----7--------7---------7-------4-4-4-4-4-|
A--5---5----4----4----3---3-----2-2-2-2-2-|
E-----------------------------------------|

Clean guitar fill apearing sometimes in chorus:

e--0-0-0-0-0-|
H--0-0-0-0-0-|
G--2/4\2\1-x-|
D----------4-|
A------------|
E------------|

And two licks apearing in bridge and outro:

Funky thing

e--x-7-x-7-x-7-x-7-|
H--x-8-x-8-x-8-x-8-|
G------------------|
D------------------|
A------------------|
E------------------|

Unisono with keys

e----------------------------------|
H--15-12--------12-15-12--------12-|
G-------14-12-14--------14-12-14---|
D----------------------------------|
A----------------------------------|
E----------------------------------|

repeat as long as needed

Hope it helps!
Добавлено: 22.06.2013
Другие материалы по этой песне:
  • Аккорды и текст

Страница создана 02.05.2012
http://primanota.ru/toto/drag-him-to-the-roof-chords.htm
Привет, Гость.
Предлагаем пройти революционный курс по гитаре.
Подарок от PrimaNota.Ru, забирай!