PrimaNota.ru - самый крупный в мире бесплатный архив песенных текстов, аккордов, табулатур и нот


Toto - Home of The Brave - текст песни, бас-таба, видео

Регистрация Запомнить меня
Войти через:  Facebook Google Twitter Vk Yandex Mail.ru

Toto - Home of The Brave - текст песни, бас-таба, видео

Печатать
Просмотров: 187
Уроки эстрадного вокала в Санкт-Петербурге
Авторы: Jimmy Webb, David Paich, Steve Lukather, Joseph Williams

-------------------------------------------------------------------------------
                             HOME OF THE BRAVE - Toto
-------------------------------------------------------------------------------
Tabbed by:
E-mail:

Tuning: Standard

Intro
     |2x                   |2x                                               |
G|-r-|---------------------|--------------4------4-6-7-6---------------------|
D|-e-|*-------------------*|*---------7-8------7----------7------------------|
A|-s-|*-------------------*|*-----7-5-----------------------5----------------|
E|-t-|--12---0---12---0-0--|--7-5--------------------------------------------|

Verse
 |2x                                                                 |
G|-------------------------------------------------------------------|-------|
D|*-----------------------------------------------------------------*|-------|
A|*-7-7-7-7-7-7-7-7-4-4-4-4-4-4-4-4-2-2-2-2-2-2-2-2-2-2-2-2-2-2-2-2-*|-------|
E|-------------------------------------------------------------------|-5-5-5-|

G|---------------------------------------------------------------------------|
D|---------------------------------------------------------------------------|
A|---------------------------------------------------------------------------|
E|-5-5-5-5-5-5-5-5-5-5-4-4-4-4-7-7-7-7-7-7-7-7-7-7-7-7-7-4-4-4-4-5-5-5-5-5-5-|

                       |2x
G|---------------------|-----------------------------------------------------|
D|---------------------|*----------------------------------------------------|
A|---------------------|*----------------------------------------------------|
E|-5-5-4-4-4-4-4-4-4-4-|--7-7-7-7-7-7-7-7-4-4-4-4-4-4-2-2-2-2-2-2-2-2-2-2-2--|

             |
G|-----------|---------------------------------------------------------------|
D|----------*|---------------------------------------------------------------|
A|----------*|---------------------------------------------------------------|
E|-2-2-2-2-2-|---------------------------------------------------------------|

Prechorus
G|---------------------------------------------------------------------------|
D|---------------------------------------------------------------------------|
A|---------------------------6-6-6-----------------9-9-9-9-9-6-6-6-7-7-7-7-7-|
E|-0-0-0-0-0-0-0-0-0-0-0-0-0-------2-2-2-2-2-2-2-2---------------------------|

G|---------------------------------------------------------------------------|
D|---------------------------------------------------------------------------|
A|-7-7-7-6-6-6-6-6-6-6-6-4-4-4-4-4-4-4-4-4-4-4-4-4-4-4-4-0-0-0-0-0-0-0-0-0-0-|
E|---------------------------------------------------------------------------|

G|---------------------------------------------------------------------------|
D|---------------------------------------------------------------------------|
A|-0-0-0-0-0-0-4-4-4-4-4-4-4-4-4-4-4-4-4-4-4-6---7-7-7-7-7-7-7-7-9-9-9-9-7-7-|
E|---------------------------------------------------------------------------|

G|---------------------------------------------------------------------------|
D|---------------------------------------------------------------------------|
A|-7-7---6---4---------------------------------------------------------------|
E|---------------7---5-------------------------------------------------------|

Chorus
 |3x
G|---------------------------------------------------------------------------|
D|*--------------------------------------------------------------------------|
A|*-------------------------------------------------4-4-4-4-2-2-2-2-2-2-2-2--|
E|--0-0-0-0-0-0-0-0-0-0-0-0-0-0-0-0-0-0-0-0-0-0-0-0--------------------------|
                    _________  ___
                   |1st & 2nd |3rd
G|-----------------|----------|-------|--------------------------------------|
D|-----------------|---------*|-------|--------------------------------------|
A|-2-2-2-2-2-2-2-2-|---------*|-3-3-3-|-0---2--------------------------------|
E|-----------------|--5-5-5---|-------|---------0-0--------------------------|

[Verse]

[Prechorus]

[Chorus]

Interlude 1
                          |3x
G|--r---------------r-----|--------------------------------------------------|
D|--e---------------e-----|*-------------------------------------------------|
A|--s---------------s-----|*-------------------------------------------------|
E|--t---1---0---3~--t--0~-|--5-5-5-5-5-5-5-5-5-5-5-5-5-5-5-5-5-5-5-5-5-5-5-5-|
                                                          _________
                                                         |1st & 2nd          |
G|-------------------------------------------------------|-------------------|
D|-------------------------------------------------------|------------------*|
A|-------------------------------------------------------|-7-7-7-7-7-7-7-7--*|
E|-5-1---0---3-3-3-3-3-3-3-3-3-3-3-3-3-3-3-3-3-3-3-3-3-3-|-------------------|
  ___
 |3rd
G|-------------4---6----6----------------------------------------------------|
D|---------7-6---7--------9-7----9-7-6----7-6--------------------------------|
A|-----7-5------------------------------------9------------------------------|
E|-7-5---------------------------------------------12/-----------------------|

Interlude 2
 |2x
G|--------------4------4-6-7-6---------|---2-4-7-5-4---------0-2-3-2---------|
D|*---------7-8------7----------7-----*|-5-----------5-----3---------3-------|
A|*-----7-5-----------------------5---*|---------------3---------------1-----|
E|--7-5--------------------------------|-------------------------------------|

G|---------------------------------------------------------------------------|
D|---------------------------------------------------------------------------|
A|-9---7----4----2-----------------------------------------------------------|
E|---------------------------------------------------------------------------|

[Chorus] 2x

[Interlude 1]

===============================================================================
| /  slide up
| \  slide down
| h  hammer-on
| p  pull-off
| ~  vibrato
| +  harmonic
| x  Mute note
===============================================================================
Добавлено: 30.07.2015
Другие материалы по этой песне:

Страница создана 15.03.2012
http://primanota.ru/toto/home-of-the-brave-chords.htm
Привет, Гость.
Предлагаем пройти революционный курс по гитаре.
Подарок от PrimaNota.Ru, забирай!