PrimaNota.ru - самый крупный в мире бесплатный архив песенных текстов, аккордов, табулатур и нот


Tool - Jerk Off - текст песни, таба, бас-таба, видео

Регистрация Запомнить меня
Войти через:  Facebook Google Twitter Vk Yandex Mail.ru

Tool - Jerk Off - текст песни, таба, бас-таба, видео

Печатать
Просмотров: 243
jerk off by tool from the album opiate

transcribed by jason diamond - diamond@cyber.net

dropped-d tuning

intro:

e|---------------------------------
B|---------------------------------
G|------9---10--9----9----10-9-----
D|---7----7-------7-----7------8--- x4
A|---------------------------------
D|---------------------------------

e|---------------------------------
B|---------------------------------
G|---------------------------------
D|--------------------------------- x4
A|------7---8---7----7----8--7-----
D|---7----7-------7-----7------8---

verse:

e|---------------------------------
B|---------------------------------
G|---------------------------------
D|---------------------------------
A|---7-------------------------8---
D|---7-------------------------8---

e|---------------------------------
B|---------------------------------
G|---------------------------------
D|---------------------------------
A|---7-----------------------------
D|---7-----------------------------

e|---------------------------------
B|---------------------------------
G|---------------------------------
D|---7------7----7----7------------
A|---5--0-0-5--0-5--0-5---3-3------
D|------0-0----0----0-----3-3------
                                    x2
e|---------------------------------
B|---------------------------------
G|---------------------------------
D|---7------7----7----7------------
A|---5--0-0-5--0-5--0-5---2-3------
D|------0-0----0----0-----2-3------

e|---------------------------------
B|---------------------------------
G|---------------------------------
D|---------------------------------
A|---------------------------------
D|---555555555555888888883333333---

e|---------------------------------
B|---------------------------------
G|---------------------------------
D|--------------------------------- x4
A|---5b-0-5b-0-5b-0-8--0-3-3-3-3---
D|---5b-0-5b-0-5b-0-8--0-3-3-3-3---

     bend the g5 1/4 step up

bridge:

e|---------------------------------
B|---------------------------------
G|---------------------------------
D|---------------------------------
A|------7---8---7----7----8--7-----
D|---7----7-------7-----7------8---

e|---------------------------------
B|---------------------------------
G|---------------------------------
D|------2---3---2----2----3--2-----
A|---------------------------------
D|---2----2-------2-----2------4---

e|---------------------------------
B|---------------------------------
G|---------------------------------
D|------3---4---3----3----4--3-----
A|---------------------------------
D|---3----3-------3-----3------4---

e|---------------------------------
B|---------------------------------
G|---------------------------------
D|------2---3---2----2----3--2-----
A|---------------------------------
D|---2----2-------2-----2------4---

e|---------------------------------
B|---------------------------------
G|---------------------------------
D|------3---4---3----3----4--3-----
A|---------------------------------
D|---3----3-------3-----3------6---

e|---------------------------------
B|---------------------------------
G|---------------------------------
D|------5---6---5----5----6--5-----
A|---------------------------------
D|---5----5-------5-----5------6---

e|---------------------------------
B|---------------------------------
G|---------------------------------
D|------5---6---5----5----6--5-8---
A|-----------------------------8---
D|---5----5-------5-----5------8---

e|---------------------------------
B|---------------------------------
G|---------------------------------
D|---10----------------------------
A|---10----------------------------
D|---10----------------------------

solo:

e|---------------------------------
B|---20-20-20-20-20-20-20-20-20----
G|---19-19-19-19-19-19-19-19-19----
D|---17-17-17-17-17-17-17-17-17----
A|---------------------------------
D|---------------------------------

     trill---------------------

outro:

e|---------------------------------
B|---------------------------------
G|---------------------------------
D|--------------------------------- x4
A|---5----8----3----0----3/5-5/8---
D|---5----8----3----0----3/5-5/8---


Добавлено: 04.03.2012
Другие материалы по этой песне:

Страница создана 27.02.2012
http://primanota.ru/tool/jerk-off-chords.htm
Привет, Гость.
Предлагаем пройти революционный курс по гитаре.
Подарок от PrimaNota.Ru, забирай!