PrimaNota.ru - самый крупный в мире бесплатный архив песенных текстов, аккордов, табулатур и нот


Tool - Lost Keys - текст песни, таба, бас-таба, видео

Регистрация Запомнить меня
Войти через:  Facebook Google Twitter Vk Yandex Mail.ru

Tool - Lost Keys - текст песни, таба, бас-таба, видео

Печатать
Просмотров: 206
                               TOOL - LOST KEYS

Tabbed by: Marcelo Crispim
Email: marcelo.crispim@hotmail.com

Artist: Tool
Song: Lost Keys (Blame Hofmann)
Album: 10,000 Days  

Tuning: D A D B G e

0:31
|--------------------------------------------------------|
|--------------------------------------------------------|   x4
|-------------------------------------------------0------|  
|-------0~----------0~----------0~----------0--------0---|  
|----0-----------3-----------0-----------3-----3---------|
|-0-----------5-----------0-----------5------------------|


1:30
|------------------------------|
|------------------------------|   x3
|-----------------------0------|
|-------0~--------0--------0---|
|----0---------3-----3---------|
|-0---------5------------------|


1:51
|---------------------------------------------------|
|---------------------------------------------------|   x2
|--------------------------------------------0------|
|-------0~--------0~--------0~--------0---------0---|
|----0---------3---------0---------3-----3\---------|
|-0---------5---------0---------5-------------------|


2:20
|---------------------------------------------------------|
|---------------------------------------------------------|   
|---------------------------------2~----------------0-----|
|-------0~--------0~--------0~---------------0---------0--|
|----0---------3---------0----------------3-----3\--------|
|-0---------5---------0---------------/5------------------|


2:35
|-------------------------------|
|-------------------------------|  
|------------------------0------|
|-------0~--------0---------0---|
|----0---------3-----3\---------|
|-0---------5-------------------|


2:42
|-------------------------------------|
|-------------------------------------|   
|-------------2~---------------0------|
|-------0~--------------0---------0---|
|----0---------------3-----3\---------|
|-0---------------5-------------------|


2:49
|-----------------------------------------|
|-----------------------------------------|
|-------------0h2~p0---------------0------|
|-------0~------------------0---------0---|
|----0-------------------3-----3\---------|
|-0-------------------5-------------------|


2:55
|---------------------------------------------------------|
|---------------------------------------------------------|   
|---------------------------------2~----------------0-----|
|-------0~--------0~--------0~---------------0---------0--|
|----0---------3---------0----------------3-----3\--------|
|-0---------5---------0---------------/5------------------|


3:10
|-------------------------------------------------------------|
|-------------------------------------------------------------|   
|---------------------------------0h2~p0----------------0-----|
|-------0~--------0~--------0~-------------------0---------0--|
|----0---------3---------0--------------------3-----3\--------|
|-0---------5---------0-------------------/5------------------|


3:25
|--------------------------------------------------------------|
|--------------------------------------------------------------|
|--------------------------------------------0-----------------|
|-------0~--------0~--------0~--------0---------0--------------|
|----0---------3---------0---------3-----3\--------------------|
|-0---------5---------0---------5------------------0(feedback)-|


I'll soon tab out the background (adjusted for the guitar... maybe it's a synth).






Добавлено: 06.07.2012
Другие материалы по этой песне:

Страница создана 23.02.2012
http://primanota.ru/tool/lost-keys-chords.htm
Привет, Гость.
Предлагаем пройти революционный курс по гитаре.
Подарок от PrimaNota.Ru, забирай!