PrimaNota.ru - самый крупный в мире бесплатный архив песенных текстов, аккордов, табулатур и нот


Tool - Vicarious - текст песни, таба, бас-таба, видео

Регистрация Запомнить меня
Войти через:  Facebook Google Twitter Vk Yandex Mail.ru

Tool - Vicarious - текст песни, таба, бас-таба, видео

Печатать
Просмотров: 561
Уроки эстрадного вокала в Санкт-Петербурге
Vicarious - Tool

Tabbed by Pier-Philippe de Chevigny LeBlanc
ashthezombiesasskicker@hotmail.com
Intro

Guitar 1

-----------------------------------------|
-----------------------------------------|
-------5-----------7---7---5-------------|
-0-7-0---7-0-7-0-5---0---0---7-0-7-3-5-2-|
-----------------------------------------|
-----------------------------------------|

------------------------------------------|
------------------------------------------|
-------5---------5---------5--------------|
-0-7-0---7-0-7-0---7-0-7-0---7-0-7-3-5-2--|
------------------------------------------|
------------------------------------------|

* = Let ring the very last time

Guitar 2 (similar to the bass riff, except for a few notes)

------------------------------------------|
------------------------------------------|
------------------------------------------|
-12-0-0-10-0-0-12-0-0-12-14-0-0-10-0-0-12-|
------------------------------------------|
------------------------------------------|

--------------------------------------------------------|
--------------------------------------------------------|
--------------------------------------------------------|
-0-0-0-15-0-0-10-0-0-10-0-0-12-14-0-0-10-0-0-12-0-10-12-|
--------------------------------------------------------|
--------------------------------------------------------|


Main riff 1

---------------------------------|
---------------------------------|
---------------------------------|
---------------------------------|
----------------------------15---|
-0---0-12-0---0--10-0--15h17-----| x4

Main riff 2
-------------------------------|
-------------------------------|
-------------------------------|
--------------------------10---|
-13/12-12-12-12-12/13------8---|
--0--0--0--0--0--0--0-0-0------| x4
            PM     PM

Bridge to Chorus - Play main riff 2 twice than :

-------------------------------------|
-------------------------------------|
-------------------------------------|
--------------------------10-----10--|
-13/12-12-12-12-12/13------8-----10--|
--0--0--0--0--0--0--0-0-0----0-0-10--|
            PM     PM

--------------------------------|
--------------------------------|
--------------------------------|
-0------3-0----5-0----3-0----1--|
-0------3-0----5-0----3-0----1--|
-0--00--3-0-00-5-0-00-3-0-00-1--|
       PM         PM        PM       PM

Bridge back to chorus - Play main riff 1 once than:

---------------------------------|
---------------------------------|
---------------------------------|
---------------------------------|
----------------------------15---|
-0---0-12-0---0--10-0--0h15h17---|
                                 PM PM

------------------------------------|
------------------------------------|
------------------------------------|
------------------------------------|
----------------------------15------|
-0---0-12-0---0--10-0--15h17--h17---|

---------------------------------|
---------------------------------|
---------------------------------|
---------------------------------|
----------------------------15---|
-0---0-12-0---0--10-0--0h15h17---|
                                 PM PM


Verse 2

Guitar one

-----------------------------------------|
-----------------------------------------|
---7-----5-0---------7-------5---------7-|
-----0-3-----0-7-3-5---0-7-0---7-0-7-0---|
-----------------------------------------|
-----------------------------------------|

-------------------------------------------|
-------------------------------------------|
-------5---------7-------5---------5---5---|
-0-7-0---7-0-7-0---0-7-0---7-0-7-0---7---7-|
-------------------------------------------|
-------------------------------------------|

Second Bridge to Chorus - Play the Main riff 2 twice, than play the first mesure of the First Bridge
to Chorus, than repeat Main riff once.

Chorus

--------------------------------------------------------------------------|
--------------------------------------------------------------------------|
-999101010999-------------------------------------------------------------|
--------------101010--0---3/55--0------------------5-0--------------------|
-777-8-8-8777-101010--0---3/55--0-------3--------5-5-0--------------------|
--------------101010--0---3/55--0--0h3h5--0-0h5h7--5-0--------------------|
                                                          PM--------------|

Main riff 1 x 3

"Why can't we just admit it"
This is very easy... but anyway...

A-------------------------|
D-0000-0-00-00--000-------|
   PM---------------------|

Break

A-------------------------|
D-0000-0-00----00---------|
   PM---------------------|

"Solo" - With tremolo and forced harmonics
*Only the last time
D-------10--8--//12//---|
A-5--6------------------|
D-----------------------|
                         *******

Fucked up part when you can't a single word from MJK

-----------------------------------------------|
-----------------------------------------------|
-----------------------------------------------|
-----------------------------------------------|
--------5--------5----3-----5/7--------3----5--|
PM-0000---0-00-0---00---0000----0-00-0---00----|

--------------------------------------------|
--------------------------------------------|
--------------------------------------------|
--------------------------------------------|
--------8-------7---3-----5/7-------3----5--|
PM-0000--0-00-0--00---0000---0-00-0---00----|  Play these 2 parts twice than


-----------------------------------------------------|
-----------------------------------------------------|
-----------------------------------------------------|
-----------------------------------------------------|
--------5--------5------3h5------7--------3------3h5-|
PM-0000---0-00-0---0h3h5----0000---0-00-0---0h3h5----|

-----------------------------------------------------|
-----------------------------------------------------|
-----------------------------------------------------|
-----------------------------------------------------|
--------8--------7------3h5------7--------3------3h5-|
PM-0000---0-00-0---0h3h5----0000---0-00-0---0h3h5----|


Repeat intro then

Intro variation

-------------------------|
-------------------------|
-------5------------0h2--|
-0-7-0---7-3-0-3-0h3-----|
-------------------------|
-------------------------|

Variation 2

----------------------------|
----------------------------|
-7-----5-----7-----8-7------|
---0-0---0-0---0-0-----0-0--|
----------------------------|
----------------------------|

Build up 1

--------------------------------------------------|
--------------------------------------------------|
--------------------------------------------------|
----7-----5-----7------8-7------5------7----5-----|
----5-----3-----5------6-5------3------5----3-----|
PM---0000--0000---0000-----0000---0000---00---00--|

Build up 2

---------------------------------------------------------|
---------------------------------------------------------|
---------------------------------------------------------|
-12------10------12------13-12------10------12----10-----|
-12------10------12------13-12------10------12----10-----|
-12-0000-10-0000-12-0000-13-12-0000-10-0000-12-00-10-00--|
PM   ----      ----       ----            ----       ----      --       --

---------------------------------------------------------|
-15------13------15------16-15------13------15----13-----|
-14------12------14------15-14------12------14----12-----|
-12------10------12------13-12------10------12----10-----|
-12------10------12------13-12------10------12----10-----|
-12-0000-10-0000-12-0000-13-12-0000-10-0000-12-00-10-00--|
PM   ----      ----       ----            ----       ----      --       --

Repeat the First Bridge to Chorus

Final Chorus

----------------------------------------|
----------------------------------------|
-999101010999---------------------------|
--------------101010--0---3-0-5-0-3-0-0-|
-777-8-8-8777-101010--0---3-0-5-0-3-0-0-|
--------------101010--0---3-0-5-0-3-0-0-|

----------------------------------------|
--------------------------6---8---6-----|
-999101010999-------------5---7---5-----|
--------------101010--0---3-0-5-0-3-0-0-|
-777-8-8-8777-101010--0---3-0-5-0-3-0-0-|
--------------101010--0---3-0-5-0-3-0-0-|

----------------------|
----------------------|
-999101010999---------|
--------------101010--|
-777-8-8-8777-101010--|
--------------101010--|

Outro

------------------------------|
------------------------------|
------------------------------|
-------3--------2-------------|
-------3--------2--------3h5--|
--00-0-3-0-00-0-2-0-0h3h5-----| x3
PM-- -     -  -- -     -  --------

------------------|
------------------|
------------------|
-------3--------2-|
-------3--------2-|
--00-0-3-0-00-0-2-| x1
PM-- -     -  -- -|

-------------------------|
-------------------------|
-------------------------|
-----------0h3h5---------|
------0h3h5-----0h3h5----|
-0h3h5-------------------| x4
PM-----------------------|
Добавлено: 28.07.2012
Другие материалы по этой песне:

Страница создана 23.02.2012
http://primanota.ru/tool/vicarious-chords.htm
Привет, Гость.
Предлагаем пройти революционный курс по гитаре.
Подарок от PrimaNota.Ru, забирай!