PrimaNota.ru - самый крупный в мире бесплатный архив песенных текстов, аккордов, табулатур и нот


Tool - Pot - текст песни, таба, бас-таба, видео

Регистрация Запомнить меня
Войти через:  Facebook Google Twitter Vk Yandex Mail.ru

Tool - Pot - текст песни, таба, бас-таба, видео

Печатать
Просмотров: 469
-------------------------------------------------------------------------------
			     THE POT -- Tool
-------------------------------------------------------------------------------
Tabbed by: Tony
Email: Eh, just leave a comment:-)

A quick note... I wont preface with "this is a first tab" cause it isnt. However, what I
say is that this tab is probably wrong.  A bunch of the parts in it, to my knowledge,
correct.  Im submitting it regardless of
error, however, because it might just be the starting ground better tabbers need to get
song down right, lol. Tabbing isnt quite my skill, so Id appreciate any comments on how
improve it.  Feel free to take this tab and
make it your own and resubmit it so its better.  This song is so cool too, isnt it?

Tuning: Drop D

Bass for the "Who are you to raise your finger" intro, until he says "You mustve been.."

Note: Alternatively, you can just play the second string 5th fret here although i think
sounds nicer this way.  The end of verse bends have some distorted technique on them
includes a harmonic.  Again, im bad at tabbing, see above, lol.  When I say "that intro 
or something akin to that, I mean this below minus the bend action at the end.

e|-----------------------------------------------------------------------------|
B|-----------------------------------------------------------------------------|
G|-----------------------------------------------------------------------------|
D|------0-------0--------0--------------0-------0--------0--------10b12--------|
10b12
A|----------------------------------------------------------------0------0---|
E|--0-0----00-0---00-0-0---00-05---0-0----00-0---00-0-0---00-05---0------0---|

Bass until "Kangaroo done hung the jury with the innocent

e|---------------------------------------------------------------------------|
B|---------------------------------------------------------------------------|
G|---------------------------------------------------------------------------|
D|------0-------0--------0--------------0-------0--------0-------------------|
A|---------------------------------------------------------------------------|
E|--0-0----00-0---00-0-0---00-05---0-0----00-0---00-0-0---00-05--------------|


e|---------------------------------|-----------------------------------------|
B|---------------------------------|-----------------------------------------|
G|---------------------------------|-----------------------------------------|
D|-------5-----3---------0---2-2-0-|----0-------0--------0-------------------|
A|---------------3-3-3-3-----2-2-0-|-----------------------------------------|
E|-----5---0--3-0------------2-2-0-|-0-0---00-0---00-0-0---00-05-------------|

e|---------------------------------|-----------------------------|--DO TWICE--|
B|---------------------------------|-----------------------------|------------|
G|---------------------------------|-----------------------REPEAT|------------|
D|-------5-----3---------0---2-2-0-|----0-------0--------0--TWICE|----10B12---|
A|---------------3-3-3-3-----2-2-0-|-----------------------------|----0-------|
E|-----5---0--3-0------------2-2-0-|-0-0---00-0---00-0-0---00-05-|----0-------|

"Who are you to raise your finger, so full of it"

e|---------------------------------------------------------------------------|
B|---------------------------------------------------------------------------|
G|---------------------------------------------------------------------------|
D|------0-------0--------0--------------0-------0--------0-------------------|
A|---------------------------------------------------------------------------|
E|--0-0----00-0---00-0-0---00-05---0-0----00-0---00-0-0---00-05--------------|

"Eyeballs deep in muddy waters.."

e|---------------------------------------------------------------------------|
B|---------------------------------------------------------------------------|
G|---------------------------------------------------------------------------|
D|------0-------0--------0--------------0-------0--------0-------------------|
A|---------------------------------------------------------------------------|
E|--0-0----00-0---00-0-0---00-05---0-0----00-0---00-0-0---00-05--------------|

"Liar, layer, mirror show me whats the difference"

e|---------------------------------------------------------------------------|
B|---------------------------------------------------------------------------|
G|---5-----------------------------------------------------------------------|
D|---5------------------------------------------0----------------------------|
A|---3------------------------------------------0----------------------------|
E|----------------------------------------------0----------------------------|

"Kangaroo done hung the guilty with the innocent"

e|---------------------------------------------------------------------------|
B|---------------------------------------------------------------------------|
G|----5-------then play that repeating-----------rift ONCE-------------------|
D|----5------------------------------------0---------------------------------|
A|----3----------------------------------------------------------------------|
E|--------------------------------------0-0----------------------------------|

"Now youre weeping..."

e|---------------------------------|-----------------------------------------|
B|---------------------------------|-----------------------------------------|
G|---------------------------------|-----------------------------------------|
D|-------5-----3---------0---2-2-0-|----0-------0--------0-------------------|
A|---------------3-3-3-3-----2-2-0-|-----------------------------------------|
E|-----5---0--3-0------------2-2-0-|-0-0---00-0---00-0-0---00-05-------------|

e|---------------------------------------------------------------------------|
B|---------------------------------------------------------------------------|
G|---------------------------------------------------------------------------|
D|-------5-----3---------0---2-2-0-0------------2------------3-----------5---|
A|---------------3-3-3-3-----2-2-0-0-----3------2-----3------3----3------5---|
E|-----5---0--3-0------------2-2-0-0--3h5-5-3h5-2--3h5-5-3h5-3-3h5-5-3h5-5---|


e|---------------------------------------------------------------------------|
B|---------------------------------------------------------------------------|
G|---------------------------------------------------------------------------|
D|----------0-------------2----------------3----------------5------------0-0-|
A|---3------0------3------2---------3------3---------3------5-----3------0-0-|
E|3h5-5-3h5-0---3h5-5-3h5-2------3h5-5-3h5-3------3h5-5-3h5-5--3h5-5-3h5-0-0-|


e|---------------------------------------------------------------------------|
B|---------------------------------------------------------------------------|
G|-----------5-5------------------------------------5-5--------------5-5-----|
D|--5-5x3-3x-5-5-x3-3x0-0x5-5-----------0-0x5-5x3-3x5-5--3-3x0-0-5-5-5-5-3-3-|
A|--5-5x3-3x-3-3-x3-3x0-0x5-5----3------0-0x5-5x3-3x3-3--3-3x0-0-5-5-3-3-3-3-|
E|--5-5x3-3x-----x3-3x0-0x5-5-3h5-5-3h5-0-0x5-5x3-3x-----3-3x0-0-5-5-----3-3-|

e|------|----------------------------------|-----------------------------------|
B|------|----------------------------------|-----------------------------------|
G|------|----------------------------------|-----------------------------------|
D|---0--|----------------------------------|-----------------------------------|
A|---0--|-----------12-------------12------|-------------12------------10------|
E|---0--|0-0-0h10h12---12-0-0-10h12---12---|-0-0-0h10h12---12-0-0-10h12---12---|
	     ***sorta pm notes, repeat 4x***         ***still semi muting***

e|-----------------------------------------------------------------------------|
B|-----------------------------------------------------------------------------|
G|-----------------------------------------------------------------------------|
D|---------------------------10-----------------------------10-----------------|
A|-----------12------------------------------12--------------------------------|
E|0-0-0h10h12---12-0-0-10h12---10-0-0-0h10h12---12-0-0-10h12---10--------------|

e|-----------------------------------------------------------------------------|
B|-----------------------------------------------------------------------------|
G|-----------------------------------------------------------------------------|
D|---------------------------10-----------------------------10-----------------|
A|-----------12-------------------------------12-------------------------------|
E|0-0-0h10h12---12-0-0-10h12----10--0-0-0h10h12---12-0-0-10h12--10-------------|

Then... "weeping shades of indigo" (NOTE: Im very off on this part, and i Know it)

e|-------repeat 3x-----------|-----------------------------------------------|
B|---------------------------|-----------------------------------------------|
G|---------------------------|-----------------------------------------------|
D|-0-0---12-12-0-0---10-10---|----12-12-12-12/15-0-8-8-8-8/10-0--------------|
A|-0-0------12-0-0------10---|----12-12-12-12/15-0-8-8-8-8/10-0--------------|
E|-0-0-12---12-0-0-10---10---|----12-12-12-12/15-0-8-8-8-8/10-0--------------|

Still not 100% sure....occurs at 4:25..

e|---------------------------------------------------------------------------|
B|---------------------------------------------------------------------------|
G|-----------REPEAT 5 TIMES--------------------------------------------------|
D|---------------------------------------------------------------------------|
A|---------------------------------------------------------------------------|
E|---12-10-13-12-0-10-0-12-x-x-12-12-10-13-12-10-10-0-12-0-------------------|
     ***mute**********************************************

e|-----------------------------------------------------------------------------|
B|-----------------------------------------------------------------------------|
G|-----------------------------------------------------------------------------|
D|-----------------------------------------------------------------------------|
A|----0-0-0-0-0-0-0-0-0-0-0-0-0-0-0-0-0---------3h5-x-x-(3h5)---------3--------|(3h5)
E|--0-0-0-0-0-0-0-0-0-0-0-0-0-0-0-0-0-0----0 3h5----x-x------0 0h3h5-----------|
	******muted*****************

e|---------------------------------------------------------------------------|
B|---------------------------------------------------------------------------|
G|---------------------------------------------------------------------------|
D|------------3-------0-------0-----0-------0--------------------------------|
A|--5-0----3h5--5p3h5-0------------------------------------------------------|
E|----0-3h5-----------0----0-0--00-0--00-0-0---00-0-5------------------------|


e|---------------------------------------------------------------------------|
B|---------------------------------------------------------------------------|
G|----5-------then play that repeating-the----------rift ONCE----------------|
D|----5------------------------------------0---------------------------------|
A|----3----------------------------------------------------------------------|
E|--------------------------------------0-0----------------------------------|

e|---------------------------------|-----------------------------------------|
B|---------------------------------|-----------------------------------------|
G|---------------------------------|-----------------------------------------|
D|-------5-----3---------0---2-2-0-|----0-------0--------0-------------------|
A|---------------3-3-3-3-----2-2-0-|-----------------------------------------|
E|-----5---0--3-0------------2-2-0-|-0-0---00-0---00-0-0---00-05-------------|

e|---------------------------------------------------------------------------|
B|---------------------------------------------------------------------------|
G|---------------------------------------------------------------------------|
D|-------5-----3---------0---2-2-0-0------------2------------3-----------5---|
A|---------------3-3-3-3-----2-2-0-0-----3------2-----3------3----3------5---|
E|-----5---0--3-0------------2-2-0-0--3h5-5-3h5-2--3h5-5-3h5-3-3h5-5-3h5-5---|

e|---------------------------------------------------------------------------|
B|---------------------------------------------------------------------------|
G|---------------------------------------------------------------------------|
D|----------0-------------2----------------3----------------5------------0-0-|
A|---3------0------3------2---------3------3---------3------5-----3------0-0-|
E|3h5-5-3h5-0---3h5-5-3h5-2------3h5-5-3h5-3------3h5-5-3h5-5--3h5-5-3h5-0-0-|

e|---------------------------------|
B|---------------------------------|
G|--------5-5--------------5-5-----|  then comes the fun end riff:-)
D|5-5x3-3x5-5--3-3x0-0-5-5-5-5-3-3-|
A|5-5x3-3x3-3--3-3x0-0-5-5-3-3-3-3-|
E|5-5x3-3x-----3-3x0-0-5-5-----3-3-|

e|---------------------------------------------------------------------------|
B|---------------------------------------------------------------------------|
G|---------------------------------------------------------------------------|
D|--0---------------------------------repeat till end, end on the 3----------|
A|--0-5----3----5-----5-----3-6p5--------------------------------------------|
E|--0--xxxx-xxxx--3-5---xxx--------------------------------------------------|


| /  slide up
|   slide down
| h  hammer-on
| p  pull-off
| ~  vibrato
| (number)  harmonic
| x  Mute note
===============================================================================
Добавлено: 13.05.2012
Другие материалы по этой песне:

Страница создана 22.02.2012
http://primanota.ru/tool/pot-chords.htm
Привет, Гость.
Предлагаем пройти революционный курс по гитаре.
Подарок от PrimaNota.Ru, забирай!