PrimaNota.ru - самый крупный в мире бесплатный архив песенных текстов, аккордов, табулатур и нот


Tool - 10000 Days Wings Part 1 - таба, видео

Регистрация Запомнить меня
Войти через:  Facebook Google Twitter Vk Yandex Mail.ru

Tool - 10000 Days Wings Part 1 - таба, видео

Печатать
Просмотров: 84
Artist: Tool
Song: Wings For Marie (Pt 1)
Album: 10,000 days

Just a quick note: As usual with all Tool songs, the time signature is really strange, 
listen to the song for the right timing.


Tuning: e
        G
        B
        D
        A
        D
(Dropped D)


|-0--------|Play very fast at first, then slow down
|----1-----|
|-------2--|
|----------|
|----------|
|----------|

|-0--------|
|----1-----|Repeat for around a minute
|-------2--|
|----------|
|----------|
|----------|

|-1--------3--------1--------1-----0-----------0-----3-----0----|
|----1--------1--------1-----------------3----------------------|
|-------2--------2--------2-------------------------------------|
|---------------------------------------------------------------|
|---------------------------------------------------------------|
|---------------------------------------------------------------|

|--0---0---0---0---0---0---0---3---0---0---0---0---0---0---0----|
|---------------------------------------------------------------|
|---------------------------------------------------------------|
|---------------------------------------------------------------|
|---------------------------------------------------------------|
|---------------------------------------------------------------|


****Repeat above three sections 4 times****


"Broken...Broken..."
|-------------------------3---3---3----|
|-3---2---2---2---2---2----------------|
|--------------------------------------|
|--------------------------------------|
|--------------------------------------|
|--------------------------------------|

|------------------------------------|
|------------------------------------|
|------------------------------------|
|-2--3--5--3--2--0--2-----2-----2----|x3
|------------------------------------|
|------------------------------------|


|------------------------------------------------------------------|
|-3--2-----------3-2-0-----------3--2-----------3-2-0-2-0----------|
|------------------------------------------------------------------|
|---------4---------------4-------------4-------------------4------|
|------------------------------------------------------------------|
|------------------------------------------------------------------|

|------------------------------------------------------------------|
|-3--2-----------3-2-0-----------3--2-----------3-2-0-2-0h2p0------|
|------------------------------------------------------------------|
|---------4---------------4-------------4--------------------------|
|------------------------------------------------------------------|
|------------------------------------------------------------------|

(with distortion)
|-------------------------------------|
|-------------------------------------|         
|-------------------------------------|          (For those who can't tell,
|--999999-000000-999999-121212121212--|x2         those 12s are twelves)
|--999999-000000-999999-121212121212--|
|--999999-000000-999999-121212121212--|


|------------------------------------|
|------------------------------------|
|------------------------------------|
|--555555-222222-555555--0-----------|
|--555555-222222-555555--0---let ring|
|--555555-222222-555555--0-----------|


(clean, low volume)
|------------------------------------|
|------------------------------------|  x3
|------------------------------10----|
|------------------------------10----|
|-7p0-5-7~--7p0-5-7--7p0-5-7/---8----|
|------------------------------------|


|---------------------------------------------------|
|---------------------------------------------------|
|------------------------------10/11/12/13/14-------|
|------------------------------10/11/12/13/14-------|
|-7p0-5-7~--7p0-5-7--7p0-5-7/---8/9 /10/11/12-------|
|---------------------------------------------------|


|--------------------------------------|
|--------------------------------------|
|--------------------------------------|
|----5---------10----------15----14----|
|-3-----3--/8------8--/17-----17-------|x6
|--------------------------------------|


|-------------------|
|-------------------|
|-------------------|
|-------------------|
|--14--17---10--12--|
|-------------------|

There ya go!
Let me know how I did
Добавлено: 11.10.2013
Другие материалы по этой песне:
  • Аккорды и текст

Страница создана 11.10.2013
http://primanota.ru/tool/10000-days-wings-part-1-chords.htm
Привет, Гость.
Предлагаем пройти революционный курс по гитаре.
Подарок от PrimaNota.Ru, забирай!