PrimaNota.ru - самый крупный в мире бесплатный архив песенных текстов, аккордов, табулатур и нот


Tool - Intentions - таба, видео

Регистрация Запомнить меня
Войти через:  Facebook Google Twitter Vk Yandex Mail.ru

Tool - Intentions - таба, видео

Печатать
Просмотров: 79


----0---0---0-----0--------------
------3-------3-----3------1---3-
--2-------2-----2-----2--2---0---   X7
---------------------------------
---------------------------------
---------------------------------

----0---5---3--------------------
------3---------6---5------------
--2-------5---5---5---5----------
---------------------------------   X4
---------------------------------
---------------------------------

---------------------------------
--0-1-0--------------------------
--------0-2----------------------
---------------------------------   X1
------------0--------------------
---------------------------------


--------------0------------------
--0-1-0---------3-0-1-0----------
--------0-2-------------0-2------
---------------------------------
------------0---------------0----
---------------------------------
                                   X2
---------------------------------
--0-1-0-----------0-1-0----------
--------0-2-----0--------0-2-----
--------------2------------------
------------0---------------0----
---------------------------------

Theres are all the parts, the rest of the song is playing these but in a different order.

Добавлено: 18.12.2013
Другие материалы по этой песне:
  • Аккорды и текст

Страница создана 18.12.2013
http://primanota.ru/tool/intentions-chords.htm
Привет, Гость.
Предлагаем пройти революционный курс по гитаре.
Подарок от PrimaNota.Ru, забирай!