PrimaNota.ru - самый крупный в мире бесплатный архив песенных текстов, аккордов, табулатур и нот


Title Fight - Symmetry - таба, видео

Регистрация Запомнить меня
Войти через:  Facebook Google Twitter Vk Yandex Mail.ru

Title Fight - Symmetry - таба, видео

Печатать
Просмотров: 124
Уроки эстрадного вокала в Санкт-Петербурге
Title Fight - symmetry

tunning: D# G# C# F# A# D#

the bass line is same as the rythm guitar part

[A] left guitar & bass
------------------------------------------------------------------|
------------------------------------------------------------------|
-----3-3-3--------------------------------------------------------| 5x
-0-0-------5-3-7-3------------------------------------------------|

[A] Right guitar
-10-7-7-7--------10-7-10-7-7-12-10-7-10-7-------------------------|
----------8-10-8--------------------------------------------------|
------------------------------------------------------------------|
------------------------------------------------------------------|
------------------------------------------------------------------|
------------------------------------------------------------------|

[B]
------------------------------------------------------------------|
------------------------------------------------------------------|
-----3-----3------------------------------------------------------| 2x
-0-0---0-0---5-3-7-3----------------------------------------------|

[C]
------------------------------------------------------------------|
------------------------------------------------------------------|
-----------------3-3-3-3------------------------------------------| 2x
-0-0-0-0-3-3-3-3---------3-3-3-3-5-5------------------------------|

1x A here

4X C but another rythm (refren)

[D]
------------------------------------------------------------------|
------------------------------------------------------------------|
---3---3---3-3-3-3-3---3-3-3-3-3----------------------------------|
-0---0---0-----------0--------------------------------------------|

4x A

then 4x C (refren)

0 or 7 for 1 beat

[E] right guitar

------------------------------------------------------------------|
------------------------------------------------------------------|
-7-10-10-3-9-5-7--------------------------------------------------| 9x
------------------------------------------------------------------|

[E] left guitar and bass

------------------------------------------------------------------|
------------------------------------------------------------------|
-7-2-2-3-10-10-7-2-2-3--------------------------------------------| 8x
-----------------------3-3----------------------------------------|
Добавлено: 22.02.2014
Другие материалы по этой песне:
  • Аккорды и текст

Страница создана 22.02.2014
http://primanota.ru/title-fight/symmetry-chords.htm
Привет, Гость.
Предлагаем пройти революционный курс по гитаре.
Подарок от PrimaNota.Ru, забирай!