PrimaNota.ru - самый крупный в мире бесплатный архив песенных текстов, аккордов, табулатур и нот


Title Fight - Head In The Ceiling Fan - таба, видео

Регистрация Запомнить меня
Войти через:  Facebook Google Twitter Vk Yandex Mail.ru

Title Fight - Head In The Ceiling Fan - таба, видео

Печатать
Просмотров: 147
Уроки эстрадного вокала в Санкт-Петербурге
Title Fight - “Head In The Ceiling Fan”

Standard Tuning

This track is a single off of Floral Green, coming out September 18th! This is pretty 
accurate, may be off a little. Guitar has some delay effects.

Intro:
E|------------------------------------------------------------------------------------|
B|-------------------------------9~-----12b---9b--9b10--------------------------------|
G|---------------------8-8-8-8-8-8~---------------------------------------------------|
D|--4~---4~----4~------6-6-6-6-6-6~----------------------11--11/13-13-13-0---------4~-|
A|--2~---2~----2~------0-0-0-0-0-7~--------------------------0--0--0--0--0---------2~-|
E|--0~---0~0---0~0---------------0~--------------------------------------0--4p0--0-0~-|

Third time, play:

E|--------------------------------------------|
B|--------------------------------------------|
G|--------------------------------------------|
D|--11/13-13-13-0-4-------------6-------------|
A|--0--0--0--0--0-6(x16)--------7(x4)----0~---|
e|--------------0----------------------4---5~-|

drums and band come in:
E|------------------------------------------------------------------------------------|
B|-------------------------------9~-----12b---9b--9b10--------------------------------|
G|---------------------8-8-8-8-8-8~---------------------------------------------------|
D|--4~---4~----4~------6-6-6-6-6-6~----------------------11--11/13-13-13-0---------4~-|
A|--2~---2~----2~------0-0-0-0-0-7~--------------------------0--0--0--0--0---------2~-|
E|--0~---0~0---0~0---------------0~--------------------------------------0--4p0--0-0~-|
(this is the intro, play it more loosely with open notes and distortion)

Part at 1:35
E|-----------------7-7-7-7--|
B|-----------------9-9-9-9--|
G|------8-6~---6---8-8-8-8--| x4
D|----9---------------------|
A|--0--------0--------------|
E|--------------------------|

Play this when singing resumes at 1:51
E|--7-9---------7-9-----------------------------|
B|------7-9~--------7-9-7-----------------------|
G|------------------------9-6~--4-6-1~-4--------| x2
D|---------------------------------------4--6b--|
A|----------------------------------------------|
E|----------------------------------------------|

“buildup” at 2:23
E|------------------------------|
B|------------------------------|
G|--8------9--------------------|
D|--x------x--------------------|
A|--6(x16)-7(x4)-----0~---------|
E|-----------------4---5~-------|

Outro
E|------------------------------------------------------------------------------------|
B|-------------------------------9~-----12b---9b--9b10--------------------------------|
G|---------------------8-8-8-8-8-8~---------------------------------------------------|
D|--4~---4~----4~------6-6-6-6-6-6~----------------------11--11/13-13-13-0---------4~-|
A|--2~---2~----2~------0-0-0-0-0-7~--------------------------0--0--0--0--0---------2~-|
E|--0~---0~0---0~0---------------0~--------------------------------------0--4p0--0-0~-|

Title fight!
Добавлено: 27.06.2013
Другие материалы по этой песне:

Страница создана 06.06.2013
http://primanota.ru/title-fight/head-in-the-ceiling-fan-chords.htm
Привет, Гость.
Предлагаем пройти революционный курс по гитаре.
Подарок от PrimaNota.Ru, забирай!