PrimaNota.ru - самый крупный в мире бесплатный архив песенных текстов, аккордов, табулатур и нот


Title Fight - Like A Ritual - таба, бас-таба, видео

Регистрация Запомнить меня
Войти через:  Facebook Google Twitter Vk Yandex Mail.ru

Title Fight - Like A Ritual - таба, бас-таба, видео

Печатать
Просмотров: 155
-----------------------------------------------------------------------------
                             LIKE A RITUAL - Title Fight
-----------------------------------------------------------------------------
This sounds mostly right to me. There may be a very minor things that I'm not 
transcribing but this is fine for now I think. Enjoy.

Tuning: Standard


INTRO:x2
e|-------------------------------------------------------|
B|-0--0--0-0-0---------------------------1---1------3p0--|
G|-2--2--2-2-2---------------------------0---0--0-0------|
D|-2--2--2-2-2-2---2--2-2-2--3--3--3-2---2---2--2-2------|
A|-0--0--0-0-0-2---2--2-2-2--3--3--3-3-3-3---3--3-3------|
E|-------------0---0--0-0-0--1--1--1-1-1-----------------|
 |
e|-------------------------------------------------------|
B|-------------------------------------------------------|
G|-------------------------------------------------------|
D|----7-7-7-5--------------------------------------------|
A|-------------7---7---7-7-8-8--8--8-7---3---3-----5-5---|
E|-------------------------------------------------------|


e|-------------------------------------------------------|
B|-0--0--0-0-0---------------------------1---1------3p0--|
G|-2--2--2-2-2---------------------------0---0--0-0------|
D|-2--2--2-2-2-2---2--2-2-2--3--3--3-2---2---2--2-2------|
A|-0--0--0-0-0-2---2--2-2-2--3--3--3-3-3-3---3--3-3------|
E|-------------0---0--0-0-0--1--1--1-1-1-----------------|
 |
e|-------------------------------------------------------|
B|-------------------------------------------------------|
G|-------------------------------------------------------|
D|----7-7-7-10-9-----------------------------------------|
A|---------------------7-7-8-8--8--8-7---3---3-----------|
E|-------------------------------------------------------|



VERSE:x4
e|-------------------------------------------------------|
B|-0--0--0-0-0---------------------------1---1------3p0--|
G|-2--2--2-2-2---------------------------0---0--0-0------|
D|-2--2--2-2-2-2---2--2-2-2--3--3--3-2---2---2--2-2------|
A|-0--0--0-0-0-2---2--2-2-2--3--3--3-3-3-3---3--3-3------|
E|-------------0---0--0-0-0--1--1--1-1-1-----------------|



CHORUS:x2
e|-----------------------------------------------------|
B|-----------------------------------------------------|
G|-2--2--2-2-2-2---2--2-2-2--7--7--7-7-7-2---2--2-2-2--|
D|-2--2--2-2-2-3---3--3-3-3--7--7--7-7-7-3---3--3-3-3--|
A|-0--0--0-0-0-3---3--3-3-3--5--5--5-5-5-3---3--3-3-3--|
E|-------------1---1--1-1-1--------------1---1--1-1-1--|

e|-----------------------------------------------------|
B|-----------------------------------------------------|
G|-2--2--2-2-2-2---2--2-2-2--7--7--7-7-7-2---2--2-2-2--|
D|-2--2--2-2-2-3---3--3-3-3--7--7--7-7-7-3---3--3-3-3--|
A|-0--0--0-0-0-3---3--3-3-3--5--5--5-5-5-3---3--3-3-3--|
E|-------------1---1--1-1-1--------------1---1--1-1-1--|
 |
e|-----------------------------------------------------|
B|-----------------------------------8p5-5~~~~~~~~~~---|
G|--------------------------------------7--------------|
D|---------------------------5/7-7-7-------------------|
A|-----------------------------------------------------|
E|-----------------------------------------------------|



OUTRO:x4
e|----------------------------------------------|
B|----------------------------------------------|
G|----------5-------5--------------5-------5----|
D|-7--7-----5-------5-----7--7-----5-------5----|
A|-7--7--5--3----3--3-----7--7--5--3----3--3----|
E|-5--5--3----------------5--5--3---------------|
 |
e|----------------------------------------------|
B|----------------------------------------------|
G|--------------------------------------7--9----|
D|-9b10r9------------------9b10r9-------------9-|
A|---------10----------------------10-----------|
E|----------------------------------------------|

x2
e|----------------------------------------------|
B|----------------------------------------------|
G|--------------------------------(5)-----------|
D|----------5----------------------5------------|
A|-7--7--5--3-------------7--7--5--3------------|
E|-5--5--3----------------5--5--3---------------|
   pm .  .  .             .  .  .  .

*Last time, just play the full C5 at the end
Добавлено: 29.06.2013
Другие материалы по этой песне:
  • Аккорды и текст

Страница создана 29.06.2013
http://primanota.ru/title-fight/like-a-ritual-chords.htm
Привет, Гость.
Предлагаем пройти революционный курс по гитаре.
Подарок от PrimaNota.Ru, забирай!