PrimaNota.ru - самый крупный в мире бесплатный архив песенных текстов, аккордов, табулатур и нот


Title Fight - Chlorine - таба, видео

Регистрация Запомнить меня
Войти через:  Facebook Google Twitter Vk Yandex Mail.ru

Title Fight - Chlorine - таба, видео

Печатать
Просмотров: 180
-------------------------------------------------------------------------------
                             CHLORINE - Title Fight
-------------------------------------------------------------------------------
Video : http://youtu.be/cr5p3VMcY9w?list=UUgGvQYk_5ATAfNvBwwqEEyg

Tuning: Standard


(Strum Accordingly)(Repeat twice)
e|---------------------------------------------------------------------------|
B|---------------------------------------------------------------------------|
G|--9--9--9----9----9----9----9----9----9-----9----9----9----8----8----8-----|
D|-12-12-12---12---12---12---12---12---12----12---12---12---12---12---12-----|
A|--0--0--0----0----0----0----0----0----0-----0----0----0----0----0----0-----|
E|-11-11-11---11---11---11---11---11---11----11---11---11---11---11---11-----|


(Repeat four times)
e|---------------------------------------------------------------------------|
B|---------------------------------------------------------------------------|
G|---------------4b5r4---4-----------------4b5r4---0-------------------------|
D|--2-2--7\5-5~---------------2-2--7\5-5~------------------------------------|
A|--0-0--5\3-3~---------------0-0--5\3-3~------------------------------------|
E|---------------------------------------------------------------------------|

"Hollow you can't hold it in"
e|---------------------------------------------------------------------------|
B|---------------------------------------------------------------------------|
G|---------------------------------------------------------------------------|
D|------------5-5-5-5-5-5-5-5------------5-5-5-5-5-5-5-5---------------------|
A|--7--7--7-5-3-3-3-3-3-3-3-3--7--7--7-5-3-3-3-3-3-3-3-3---------------------|
E|--5--5--5-3------------------5--5--5-3-------------------------------------|

"Poison in your mood" 
(Repeat four times)
(Strum pattern varies) 
e|---------------------------------------------------------------------------|
B|---------------------------------------------------------------------------|
G|---------------------------------------------------------------------------|
D|--5-5-555--2-2-2--------------5-5-555--2-2-2-------------------------------|
A|--3-3-333--0-0-0--5-5-5-5-----3-3-333--0-0-0--5-5-5-5----------------------|
E|------------------3-3-3-3---------------------3-3-3-3----------------------|

(Strum Intro chord for second guitar)
e|---------------------------------------------------------------------------|
B|---------------------------------------------------------------------------|
G|---------------------------------------------------------------------------|
D|---------------------------------------------------------------------------|
A|---------------------------------------------------------------------------|
E|-2~------2~------2~------2~------2~------2~------2~------2~----------------|

(Repeat twice)
e|---------------------------------------------------------------------------|
B|---------------------------------------------------------------------------|
G|---------------4b5r4---4-----------------4b5r4---0-------------------------|
D|--2-2--7\5-5~---------------2-2--7\5-5~------------------------------------|
A|--0-0--5\3-3~---------------0-0--5\3-3~------------------------------------|
E|---------------------------------------------------------------------------|

"Hollow you can't hold it in"
e|---------------------------------------------------------------------------|
B|---------------------------------------------------------------------------|
G|---------------------------------------------------------------------------|
D|------------5-5-5-5-5-5-5-5------------5-5-5-5-5-5-5-5---------------------|
A|--7--7--7-5-3-3-3-3-3-3-3-3--7--7--7-5-3-3-3-3-3-3-3-3---------------------|
E|--5--5--5-3------------------5--5--5-3-------------------------------------|

"Poison in your mood....opening the wound" 
(Repeat eight times)
(Strum pattern varies) 
e|---------------------------------------------------------------------------|
B|---------------------------------------------------------------------------|
G|---------------------------------------------------------------------------|
D|--5-5-555--2-2-2--------------5-5-555--2-2-2-------------------------------|
A|--3-3-333--0-0-0--5-5-5-5-----3-3-333--0-0-0--5-5-5-5----------------------|
E|------------------3-3-3-3---------------------3-3-3-3----------------------|

Solo : 
e|---------------------------------------------------------------------------|
B|---------------------------------------------------------------------------|
G|-------7h9/12-9-7-99-------------------------7h9/12-9-7-99-----------------|
D|----7----------------9----7----5----------7----------------9-----7--5------|
A|--8--------------------10--7----5--7-7--8-------------------10---7--5--7-7-|
E|---------------------------------------------------------------------------|

Outro :
e|---------------------------------------------------------------------------|
B|---------------------------------------------------------------------------|
G|---------------------------------------------------------------------------|
D|---------------------------------------------------------------------------|
A|---------------------------------------------------------------------------|
E|-2~------2~------2~------2~------2~------2~------2~------2~----------------|

Second guitar outro :
e|---------------------------------------------------------------------------|
B|---------------------------------------------------------------------------|
G|--9--9--9----9----9----9----9----9----9-----9----9----9----8----8----8-----|
D|-12-12-12---12---12---12---12---12---12----12---12---12---12---12---12-----|
A|--0--0--0----0----0----0----0----0----0-----0----0----0----0----0----0-----|
E|-11-11-11---11---11---11---11---11---11----11---11---11---11---11---11-----|



************************************

| /   slide up
| \   slide down
| h   hammer-on
| p   pull-off
| ~   Let Ring
| b   Bend

************************************
Добавлено: 17.05.2015
Другие материалы по этой песне:
  • Аккорды и текст

Страница создана 17.05.2015
http://primanota.ru/title-fight/chlorine-chords.htm
Привет, Гость.
Предлагаем пройти революционный курс по гитаре.
Подарок от PrimaNota.Ru, забирай!