PrimaNota.ru - самый крупный в мире бесплатный архив песенных текстов, аккордов, табулатур и нот


Thousand Foot Krutch - Go - текст песни, таба, видео

Регистрация Запомнить меня
Войти через:  Facebook Google Twitter Vk Yandex Mail.ru

Thousand Foot Krutch - Go - текст песни, таба, видео

Печатать
Просмотров: 174
This maybe a little confusing due to the layering of the song, but when played with the 
it all ocmes together quite well...


Intro Rhythm Guitar:
e | ----------------------------------------------|
B | ----------------------------------------------|
G | ----------------------------------------------|
D | -7-9-9-11-7-12-0-0-12-12-14-------------------| 4x
A | -7-9-9-11-7-12-0-0-12-12-14-------------------|
D | -7-9-9-11-7-12-0-0-12-12-14-------------------|


Lead does this on 2nd and 4th times
G | ---------------------------|
D | -7-6-7-6-7-9---------------|


Verse 1 Rhythm:
e | --------------------------------------------------|
B | --------------------------------------------------|
G | --------------------------------------------------|
D | -9------------------------------------------------| 3x
A | -9------------------------------------------------|
D | -9--9-9-9-7-7-12-12-12-12-12s14-------------------|

e | --------------------------------------------------|
B | --------------------------------------------------|
G | --------------------------------------------------|
D | -9-9-9-9-7-7-12-12-12-12-12s14--------------------|
A | -9-9-9-9-7-7-12-12-12-12-12s14--------------------|
D | -9-9-9-9-7-7-12-12-12-12-12s14--------------------|


Pre-chorus Rhythm Guitar:
e | ---------------------------------|
B | ---------------------------------|
G | ---------------------------------|
D | -5-5-5-5-7-7-7-7-----------------|
A | -5-5-5-5-7-7-7-7-----------------|
D | -5-5-5-5-7-7-7-7-----------------|


Chorus Rhythm Guitar:
e |--------------------------------------------------|
B |--------------------------------------------------|
G |--------444444------------------------------------|
D |--222222444444000000777777222222555555000000777777|
A |--222222222222000000777777222222555555000000777777|x2
D |--222222------000000777777222222555555000000777777|


Chorus Lead Guitar:
e | -17--17---15---15-----14---14-----15---15------------|
B | ---15---15---15--15------15----15----15--15----------| 4x
G | -----------------------------------------------------|
D | -----------------------------------------------------|


Then Intro 2x


Verse 2 Lead:
e | -------|
B | -------|
G | -------|
D | -9-----|
A | -9-----|
D | -9-----|


Verse 2 Rhythm:
e | ------------------------------------|
B | ------------------------------------|
G | ------------------------------------|
D | ------------------------------------| 4x
A  | -----------------------------------|
D | -9-9-9-7-7-7-0-0-0-0-5-5-5----------|


Then Lead plays:
e | ---------------|
B | ---------------|
G | ---------------|
D | -9-------------|
A | -9-------------|
D | -9-------------|


Lead and Rhythm:
e | ------------------------------------|
B | ------------------------------------|
G | ------------------------------------|
D | -9-9-9-7-7-7-0-0-0-5-5-5------------|
A | -9-9-9-7-7-7-0-0-0-5-5-5------------|
D | -9-9-9-7-7-7-0-0-0-5-5-5------------|


Pre-Chorus


Chorus


Bridge- Rhythm Guitar in the background:
e | -----------------------------------------------------|
B | -----------------------------------------------------|
G | -----------------------------------------------------|
D | -----------------------------------------------------| 8x
A | -----------------------------------------------------|
D | -9-9-9-9-9-12-12-12-12-12-7-7-7-7-7-5-5-5-5-5--------|


Then Lead comes in on the 2nd time:
G | -----------------------------------------------|
D | -----------------------------------------------|
A | -2--------5--------4--------2------------------|


Then Rhythm plays:
e | -------------------------------------|
B | -------------------------------------|
G | -------------------------------------|
D | -9-9-9-9-12-12-12-12-7-7-7-7-5-------| Stop
A | -9-9-9-9-12-12-12-12-7-7-7-7-5-------|
D | -9-9-9-9-12-12-12-12-7-7-7-7-5-------|


Lead Plays:
D | ------------------------------------|
A | -9---------12-----------14----------|


Solo Lead Guitar:
e | -17-----17--5-7-7-10-5-7-10--14-14-14-----14----14-14----14-12---|
B | --------15-----------------------------------12----12-------12---|
G | -----------------------------------------------------------------|


Behind that Rhythm plays:
e | ---------------------------------------------------|
B | ---------------------------------------------------|
G | ---------------------------------------------------|
D | -9-9-9-9-12-12-12-12-7-7-7-7-14-14-14-14-----------| 2x
A | -9-9-9-9-12-12-12-12-7-7-7-7-14-14-14-14-----------|
D | -9-9-9-9-12-12-12-12-7-7-7-7-14-14-14-14-----------|


Chorus 8x


Ending:
e | ----------------------------|
B | ----------------------------|
G | ----------------------------|
D | -7-9-9-9-11-7---------------|
A | -7-9-9-9-11-7---------------|
D | -7-9-9-9-11-7---------------|
Добавлено: 02.06.2013
Другие материалы по этой песне:
  • Аккорды и текст

Страница создана 02.06.2013
http://primanota.ru/thousand-foot-krutch/go-chords.htm
Привет, Гость.
Предлагаем пройти революционный курс по гитаре.
Подарок от PrimaNota.Ru, забирай!