PrimaNota.ru - самый крупный в мире бесплатный архив песенных текстов, аккордов, табулатур и нот


Thousand Foot Krutch - Home - таба, видео

Регистрация Запомнить меня
Войти через:  Facebook Google Twitter Vk Yandex Mail.ru

Thousand Foot Krutch - Home - таба, видео

Печатать
Просмотров: 274
Band- Thousand Foot Krutch
Song- Home

E       —2---3---2---5---2---3---2---7---|
B       —0---0---0---0---0---0---0---0---|
G       —4---5---4---7---4---5---4---9---|        Part 1/ Intro
D       -X---X---X---X---X---X---X---X---|
A       -X---X---X---X---X---X---X---X---|
E       -X---X---X---X---X---X---X---X---|


E-----------------------------------|
B-----------------------------0-----|
G--------0------0------0-------0----|           Part 2/ Verse & Pre Chorus
D------0------0------0------0-------|
A---3-------5------2------7---------|
E-----------------------------------|


E---------------------            -------------------------|
B---------------------            ---1----1----------------|
G-------7---5—5-------    Chorus Part 1    ---2----2-------|    Chorus Part 2/ Ending
D---5---7---5—5-------               ---2----3-------------|
A---5---5---2>3-------            -------------------------|
E---3-----------------            -------------------------|


E------------------------------------------------------------------|
B------------------------------------------------------------------|
G------------------------------------------------------------------|          Part 3/Bridge
D-----0---0---0---0---0---0---0---0---0---0---0---0---0---0---0----|
A---2---2---2---2---3---3---3---3---5---5---5---5---7---7---7---7--|
E------------------------------------------------------------------|
Добавлено: 07.08.2013
Другие материалы по этой песне:
  • Аккорды и текст

Страница создана 26.07.2013
http://primanota.ru/thousand-foot-krutch/home-chords.htm
Привет, Гость.
Предлагаем пройти революционный курс по гитаре.
Подарок от PrimaNota.Ru, забирай!