PrimaNota.ru - самый крупный в мире бесплатный архив песенных текстов, аккордов, табулатур и нот


Thousand Foot Krutch - Outta Control - текст песни, таба, видео

Регистрация Запомнить меня
Войти через:  Facebook Google Twitter Vk Yandex Mail.ru

Thousand Foot Krutch - Outta Control - текст песни, таба, видео

Печатать
Просмотров: 701
Уроки эстрадного вокала в Санкт-Петербурге
Song: Outta Control
Band: Thousand Foot Krutch
Album: Welcome to the Masquerade

This song ROCKS! I'm surprised that it's not more popular. Anyhow, here's
the tab :)

Intro:

C#--------------------------------------------------|
G#--------------------------------------------------|
E --------------------------------------------------|
B --------------------------------------------------|
F#--------------------------------------------------|
B ----0-0--7-7--8-8---3-----0-0--7-7--3-3---2h3-----|


C#--------------------------------------------------|
G#--------------------------------------------------|
E --------------------------------------------------|
B --------------------------------------------------|
F#--------------------------------------------------|
B ----0-0--7-7--8-8---3-----0-0--7-7--3-3-----------|


C#-----------------------------------------------------------------|
G#-----------------------------------------------------------------|
E -----------------------------------------------------------------|
B ----0-0--7-7--8-8--3-3--5-5-3-2--0-0--7-7--8-8--3-3--x-x--3p2----| play 2x
F#----0-0--7-7--8-8--3-3--5-5-3-2--0-0--7-7--8-8--3-3--x-x--3p2----|
B ----0-0--7-7--8-8--3-3--5-5-3-2--0-0--7-7--8-8--3-3--x-x--3p2----|

Verse: "It feels like a dream, how did things all get so crazy?"

Guitar 1
C#--------------------------------------|
G#--------------------------------------|
E --------------------------------------|
B ----0-0--7-7--8-8------0-0--7-7--3-3--| 2x
F#----0-0--7-7--8-8------0-0--7-7--3-3--|
B ----0-0--7-7--8-8------0-0--7-7--3-3--|
      * *  * *  * *      * *  * *  * *
      Palm mute

Guitar 1
C#--------------------------|
G#--------------------------|
E --------------------------|
B ----0-0--7-7--8-8--3-3----| 4x
F#----0-0--7-7--8-8--3-3----|
B ----0-0--7-7--8-8--3-3----|
      * *  * *  * *  * *
The timing for guitar 1 is a little different here. You might play
the 0 or the 7 a couple more times but I'm not sure.

Guitar 2
Comes in later in the verse

          tens
C#-----------------|
G#--------10-------|
E ----7------10----|
B -----------------| 2x
F#-----------------|
B -----------------|


Chorus: "I'm spinning out of control"

C#--------------------------------------------------------------------|
G#--------------------------------------------------------------------|
E --------------------------------------------------------------------|
B ----0---0--0---3---3--3---5---5--5---0-0-10-10--0-0-10-10----10/----|
F#----0---0--0---3---3--3---5---5--5---0-0-10-10--0-0-10-10----10/----|
B ----0---0--0---3---3--3---5---5--5---0-0-10-10--0-0-10-10----10/----|
                                       * *        * *
                                           all 10's are tens


C#-------------------------------------------------------------|
G#-------------------------------------------------------------|
E -------------------------------------------------------------|
B ----0---0--0---3---3--3---5---5--5---8-8-8-8--10-10-10-10----|
F#----0---0--0---3---3--3---5---5--5---8-8-8-8--10-10-10-10----|
B ----0---0--0---3---3--3---5---5--5---8-8-8-8--10-10-10-10----|

Play 2nd part of intro 1x as post-chorus


Repeat verse: "You thought you could come and take it all without hurting me"

Only difference is Guitar 2 plays this

C#----------------------------------|
G#--------10-7------------10-8-7----|
E ----7---------------7-------------|
B ----------------------------------|
F#----------------------------------|
B ----------------------------------|


Repeat Chorus: "I'm spinning out of control"


Bridge: "I wanna get this off my mind"

            2x
C#-------------------------------------------------------------------------|
G#-------------------------------------------------------------------------|
E -------------------------------------------------------------------------|
B -------------------------------------------------------------------------|
F#-------------------------------------------------------------------------|
B ----0-0-0-0----6-6-6-6--3-3-3-3--0-0-0-0----6-6-6-6--3-3-3-3--0-0-0-0----|
      * * * *    * * * *  * * * *  * * * *    * * * *  * * * *  * * * *

Guitar 1
     Listen for timing
C#------------------------------|
G#------------------------------|
E ------------------------------|
B ----0--0---0--0-6--6--3--3----| 8x
F#----0--0---0--0-6--6--3--3----|
B ----0--0---0--0-6--6--3--3----|

Guitar 2 Come in later in bridge
C#-------------------|
G#----10----9--------|
E -------------10----|
B -------------------| 4x
F#-------------------|
B -------------------|

Play Chorus a couple more times

Then play the second part of the intro 2x


That's all there is to it! Keep rockin' and God Bless :)
Добавлено: 02.06.2013
Другие материалы по этой песне:
  • Аккорды и текст

Страница создана 02.06.2013
http://primanota.ru/thousand-foot-krutch/outta-control-chords.htm
Привет, Гость.
Предлагаем пройти революционный курс по гитаре.
Подарок от PrimaNota.Ru, забирай!